Oops, an error
Loading. Please wait.

Speak Of The Devil Chords

version 3
version 3

Whole song

Interactive

4,682 views 3 this week
1 commentread comment
1 2 3 4 5
excellent!
x 4
add to favorites
launch autoscroll
font size
0
reset
transpose
0
reset
display chords
guitar tuner
Tab Pro tools
  • play this tab
  • loop segment
  • change instrument
  • show fretboard
  • metronome
×
Best way to learn
"Speak Of The Devil"
Autoscroll
slow
fast
+/-
esc
set tempo
stop
Contributor
Sum 41
Speak of the Devil
Underclass Hero
2007 Island Records
Submitted by: paramore_fans@yahoo.com

Key: F#

Tuning: Standard EADGBe

Chords used:
F# -    244322
C#/F -  143xxx
C# -    x46664
Ebm -   x68876
B -     x24442
F#/Bb - x143xx
Bb -    x13331


Intro:
F#
Trying to find a way
        C#/F
Getting better everyday
      Ebm
And I got you now
         C#
I'm not alone
      B
All I need in
             F#/Bb
this life is one
    B          C#
One thing to believe in


Interlude: F#---F#-C#/F-Ebm-C# x3


Verse 1:
F#               Ebm
I've seen many a face
                   B
From young and too old
                  C#
I've stolen their faith and
                    F#
I have broken their souls
                Ebm
Was here before Christ had
                 B
forgave you your sins
              C#
And paid your price and
sealed your fate within


Refrain 1:
Ebm            B
Days have come to an end
  F#
Today's the day
        C#/F  C#
that we meet again
    Ebm
The self-inflicted
  B
inebriation
F#          C#
guilt never lies


Interlude: B--C# x2


Chorus 1:
Ebm
I've been waiting for
    B
the chance to reunite
            F#
this sick romance
                     C#/F F#
Poison never hurt so good
           Ebm
So nice of you to speak of me
             B
Your closest friend and enemy
         F#            Bb
And holy savior of masochists


Post Chorus 1:
              B         F#
Well it's the dead end slave
         B            F#
From the altar to the grave
         B         F#     C#
It's the last days of our lives
          F# C#/F x2
In faith amen


Verse 2:
F#                Ebm
Time it's been so long
And now there's
           B
nothing to say
              C#
I'm trying so hard to
                  F#
find the words to say
             Ebm
I'm tired of being now
                  B
I'm something I'm not
          C#
I can't believe
and I never thought


Refrain 2:
Ebm             B
Days would come to an end
     F#
Well maybe someday
      C#
we'll meet again
   Ebm           B
If ever that day never comes
   F#           C#
It would be too soon My love


Interlude: B--C# x2


Chorus 2:
Ebm                       B
I've been waiting for the chance
                       F#
to nullify this sick romance
                      C#/F F#
Pull the chord to detonate
           Ebm
So sick of you don't speak of me
             B
The reverend saint of misery
         F#            C#
And holy savior of masochist


Post Chorus 2:
              B         F#
Well it's the dead end slave
         B            F#
From the altar to the grave
         B         F#     C#
It's the last days of our lives
(Repeat)
In faith amen


Outro:
F#
Trying to find a way
        C#/F
Getting better everyday
      Ebm                  C#
And I got you now I'm not alone
      B                    F#/Bb
All I need in this life is one
          B    C#
One thing to believe in
(Repeat)


_____________________________________

Bass Tab


Key: F#

Intro: Idle


Distortion:
G|-------------------------|
D|-------------------------|
A|--------------9--8--6--4-|
E|-2-2-2-2--2-2------------|


Verses:
G|---------------------------------------------------|
D|-------------------------------------------1-1-3-3-|
A|----------4-6-6-6-6--1-2-2-2-2--4-4-4-4-4----------| x2
E|-2-2-2-2-------------------------------------------|


Refrain: "Days have come to an end" x2
G|-----3------3------3------3-----------------------------|
D|-1-1----1-1----1-1----1-1--------4------4------4------4-|
A|-----------------------------2-2----2-2----2-2----2-2---|
E|--------------------------------------------------------|

G|--------------------------------------------------------|
D|---------------------------------6------6------6------6-|
A|-----4------4------4------4--4-4----4-4----4-4----4-4---|
E|-2-2----2-2----2-2----2-2-------------------------------|


Pre Chorus:
G|------|
D|------|
A|-2--4-|
E|------|


Chorus: "I've been waiting for a chance..."
G|---------------------------------------|
D|---------------------------------------|
A|-6-6-6-6--2-2-2-2----------------------|
E|-------------------2-2-2-2--1-1-1-1--2-|

G|------------------------------------|
D|------------------------------------|
A|-6-6-6-6--2-2-2-2-----------1-1-1-1-|
E|-------------------2-2-2-2----------|

"Now it's a dead end street"
G|------------------|---------|
D|------------------|---------|
A|-2-2-2-2----------|-4-4-4-4-|
E|----------2-2-2-2-|---------|
         x3


Outro: "Try to find a way"
G|--------------------------------------|
D|--------------------------------------|
A|-----------6-6--4-4--2-2--1-1--2-2--4-|
E|-2-2--1-1-----------------------------|
comments
print report bad tab
1 comment total.
0 reply
salrandom wrote on August 22 2013, 08:06 am

Probably it was worth placing a capo on the first fret and dropping chords half a tone lower, but the tab's still great.

I want to post or [tab]
guest
You may want to rate the tab now too:
select rating
Please do not post tabs as comments. Select "correction" instead!