Oops, an error
Loading. Please wait.

Still Waiting Tab

version 2
18,079 views 6 this week
1 commentread comment
1 2 3 4 5
accurate
x 5
add to favorites
launch autoscroll
font size
0
reset
how to read this tab
guitar tuner
Tab Pro tools
  • play this tab
  • loop segment
  • change instrument
  • show fretboard
  • metronome
×
Best way to learn
"Still Waiting"
Autoscroll
slow
fast
+/-
esc
set tempo
stop
Contributor
Sum 41
Still Waiting
Does This Look Infected
Tabbed By: Justin Miller (lordabortion929@aol.com

Key:
  ..... = Palm Mute
  |o
  |o = Repeat Mesure 1 time (or however many times listed)
  7p5 = pulloff
  5h7 = Hammer on
  / \ = slide up or down to second note
   X\ = slide from anywhere past 12th fret
  Intro

  Gtr 1 (w/light dist)
|---------------------------------|---------------------------------|
|---------------------------------|---------------------------------|
|---------------------------------|-----------------2-2-2-2-2-2-2-2-|
|-----------------5-5-5-5-5-5-5-5-|-----------------0-0-0-0-0-0-0-0-|
|-2-2-2-2-2-2-2-2-3-3-3-3-3-3-3-3-|-5-5-5-5-5-5-5-5-----------------|
|-0-0-0-0-0-0-0-0-----------------|-3-3-3-3-3-3-3-3-----------------|
  . . . . . . . . . . . . . . . .   . . . . . . . . . . . . . . . .

|---------------------------------|---------------------------------|
|---------------------------------|---------------------------------|
|---------------------------------|-----------------------------7-7-|
|-----------------5-5-5-5-5-5-5-5-|-----------------7-7-7-7-7-7-7-7-|
|-2-2-2-2-2-2-2-2-3-3-3-3-3-3-3-3-|-5-5-5-5-5-5-5-5-5-5-5-5-5-5-5-5-|
|-0-0-0-0-0-0-0-0-----------------|-3-3-3-3-3-3-3-3-----------------|
  . . . . . . . . . . . . . . . .   . . . . . . . . . . . . . . 


  Verse Intro  

  Guitar 1 (w/heavy dist)
|---------------------------------|----------------------------------|
|---------------------------------|----------------------------------|
|o--------------------------------|---------------------------------o|
|o----------------5-5-5-5-5-5-5-5-|-----------------7-7-7-7-7-7-7-7-o|
|-2-2-2-2-2-2-2-2-3-3-3-3-3-3-3-3-|-5-5-5-5-5-5-5-5-5-5-5-5-5-5-5-5--|
|-0-0-0-0-0-0-0-0-----------------|-3-3-3-3-3-3-3-3------------------|
|
| Guitar 2 (w/heavy dist)
|---------------------------------|----------------------------------|
|---------------------------------|----------------------------------|
|o----12--11-12-------12--11-12---|-----12--11-12---14--12--11------o|
|o--------------------------------|----------------------------12---o|
|-----10--9--10-------10--9--10---|-----10--9--10---12--10--9--------|
|---------------------------------|----------------------------10----|

  
  Verse

  Gtr 2. Gtr 1 tacet
|---------------------------------|---------------------------------|
|---------------------------------|---------------------------------|
|o--------------------------------|---------------------------------|
|o--------------------------------|---------------------------------|
|-2---------------8\7---8\7---5/7-|-2---------------5-----5-----5---|
|-0---0-0-0-0-0-0-6\5-0-6\5-0-3/5-|-0---0-0-0-0-0-0-3---0-3---0-3---|
      . . . . . .     .     .           . . . . . .     .     .   

                                                    /gtr 2 do fill 1\
                                                   |  on the repeat |
|---------------------------------|---------------------------------|
|---------------------------------|---------------------------------|
|---------------------------------|-------------------------7-7-7--o|
|---------------------------------|--------------------------------o|
|-2---------------8\7---8\7---5/7-|-2---------------5-5-5---5-5-5---|
|-0---0-0-0-0-0-0-6\5-0-6\5-0-3/5-|-0---0-0-0-0-0-0-3-3-3-----------|
      . . . . . .     .     .           . . . . . .          

                  Fill 1                           (gtr 1 pick scrape)
                |-----------------|---------------------------------|
                |-----------------|---------------------------------|
                |-----------------|---------------------------------|
                |-----------------|---------------------------------|
                |-5-5-5-5-5-5-5-5-|-5-5-5-5-5-5-5-5-5-5-5-5-5-5-5-5-|
                |-3-3-3-3-3-3-3-3-|-3-3-3-3-3-3-3-3-3-3-3-3-3-3-3-3-|
                  . . . . . . . .   . . grad release pm 


  Chorus 

  Gtr 1 and 2
|---------------------------------|----------------------------------|
|---------------------------------|----------------------------------|
|o--------------------------------|---------------------------------o|
|o----------------5-5-5-5-5-5-5-5-|-----------------7-7-7-7-7-7-7-7-o|
|-2-2-2-2-2-2-2-2-3-3-3-3-3-3-3-3-|-5-5-5-5-5-5-5-5-5-5-5-5-5-5-5-5--|
|-0-0-0-0-0-0-0-0-----------------|-3-3-3-3-3-3-3-3------------------|


  Bridge

|----------------------------------|----------------------------------|
|----------------------------------|----------------------------------|
|o---------------------------------|---------------------------------o|
|o-9-9-9-9-9-9-9-9-5-5-5-5-5-5-5-5-|-----------------4-4-4-4-4-4-4-4-o|
|--7-7-7-7-7-7-7-7-3-3-3-3-3-3-3-3-|-5-5-5-5-5-5-5-5-2-2-2-2-2-2-2-2--|
|----------------------------------|-3-3-3-3-3-3-3-3------------------|


|----------------------------------|----------------------------------|
|----------------------------------|----------------------------------|
|o---------------------------------|---------------------------------o|
|o-9-9-9-9-9-9-9-9-5-----7---------|--9-9-9-9-9-9-9-9-5-----7--------o|
|--7-7-7-7-7-7-7-7-3-----5-----9---|--7-7-7-7-7-7-7-7-3-----5-----9---|
|------------------------------7---|------------------------------7---|


  Guitar 1
|---------------------------------|----------------------------------|
|---------------------------------|----------------------------------|
|-9-9-9-9-9-9-9-9-9-9-9-9-9-9-9-9-|-12-12-12-12-12-12-11-11-11-11-11-|
|---------------------------------|----------------------------------|
|-7-7-7-7-7-7-7-7-7-7-7-7-7-7-7-7-|-10-10-10-10-10-10-9--9--9--9--9--|
|---------------------------------|----------------------------------|
|
| Guitar 2
|---------------------------------|----------------------------------|
|---------------------------------|----------------------------------|
|---------------------------------|----------------------------------|
|-9-9-9----------5-5-5------------|-----------------4-4-4------------|
|-7-7-7----------3-3-3------------|-5-5-5-----------2-2-2------------|
|---------------------------------|-3-3-3------------------X\--------|



  Solo

   Guitar 1                                            |do 3x on 4th time| 4x
|------------------------------------|--------------------------------------|
|------------------------------------|--------------------------------------|
|o-----------------------------------|-------------------------------------o|
|o-9-9-9-9-9-9-9-9-9-5-5-5-5-5-5-5-5-|-----------------4-4-4-4-4-4-4-4-4-4-o|
|--7-7-7-7-7-7-7-7-7-3-3-3-3-3-3-3-3-|-5-5-5-5-5-5-5-5-2-2-2-2-2-2-2-2-2-2--|
|------------------------------------|-3-3-3-3-3-3-3-3----------------------|
|
| Guitar 2                                             |do 3x on 4th time| 4x
|------------------------------------|--------------------------------------|
|------------------------------------|--------------------------------------|
|o-----------------------------------|-------------------------------------o|
|o-----9-----------------9-----------|-----9-------------------------------o|
|--7-7---10p9----9---------10p9----9-|-7-7---10p9----9-5-10-9-10-12p10-9h10-|
|-------------10---10-10--------10---|------------10------------------------|


  Outro Chorus 

  Gtr 1 and 2                                                       4x
|---------------------------------|----------------------------------|
|---------------------------------|----------------------------------|
|o--------------------------------|---------------------------------o|
|o----------------5-5-5-5-5-5-5-5-|-----------------7-7-7-7-7-7-7-7-o|
|-2-2-2-2-2-2-2-2-3-3-3-3-3-3-3-3-|-5-5-5-5-5-5-5-5-5-5-5-5-5-5-5-5--|
|-0-0-0-0-0-0-0-0-----------------|-3-3-3-3-3-3-3-3------------------|

|----------------------------------|
|----------------------------------|
|----------------------------------|
|-9-9-9-9-9-9-9-9-9-9--------------|
|-7-7-7-7-7-7-7-7-7-7--------------|
|----------------------------------|

Order Of Song
intro
verse intro
verse
chorus
verse intro
verse
chorus
bridge
solo
outro chorus
comments
print report bad tab
1 comment total.
0 reply
jungleman wrote on February 3 2003, 12:00 am

there r 2 different guitars in the chorus

I want to post or [tab]
guest
You may want to rate the tab now too:
select rating
Please do not post tabs as comments. Select "correction" instead!