Oops, an error
Loading. Please wait.

Still Waiting Tab

version 3
65,945 views 1 this week
4 commentsread comments
1 2 3 4 5
x 5
add to favorites
launch autoscroll
font size
0
reset
how to read this tab
guitar tuner
Autoscroll
slow
fast
+/-
esc
set tempo
stop
Help us to improve Ultimate-Guitar.com Take our survey!
×
Author
                ..      sum 41       ..
                ..   "still waiting" ..
                ..    par supa       .. 
                .......................
                .......................

intro (PM)
------------------------------------------------------------
------------------------------------------------------------
--9-9-9-9-9-9-9-9-------------------------5555555-----------
--9-9-9-9-9-9-9-9-10-10-10-10-10-10-10-10-55555555-99999999-   X2
--7-7-7-7-7-7-7-7-10-10-10-10-10-10-10-10-33333333-99999999-
------------------8--8--8--8--8--8--8--8-----------77777777-          
"so am I..."


RIFF*2 (2 guitare)

guitare 1
--------------------------------
--------------------------------
--------------------------------   X2
---5-4-5---5-4-5---5-4-5-7-5-4--
-------------------------------5
--------------------------------


guitare 2
-------------------------------------------
-------------------------------------------
---------5555------5555------5555------5555
----2222-5555-2222-5555-2222-5555-2222-5555
----2222-3333-2222-3333-2222-3333-2222-3333
----0000------0000------0000------0000-----


couplet

----------------------------------------------------------------------
----------------------------------------------------------------------
----------------------------------------------------------------------
----------------------------------------------------------------------
----------------------------------------------------------------------
-0-000000--650--650--35--0-000000--03--3--03--0-000000--650--650--35--
   ..pm..                  ..pm..               ..pm..                  


         ------------------         -----
(suite)  ------------------         -----  a jouer seulement
         ------------------ X2      -77-7  la 1er fois (à la fin)
         ---5555555-9999999         -77-7
         ---5555555-9999999         -55-5
         ---3333333-7777777         -----
            ..pm... ..pm...          pm


refrain

----------------------------------------------
----------------------------------------------
---99999999-----------------------------------   X2
---99999999-1010101010101010-55555555-99999999
---77777777-1010101010101010-55555555-99999999
------------8-8-8-8-8-8-8-8--33333333-77777777
"so am I..."


RIFF*2 (2 guitare)

guitare 1
--------------------------------
--------------------------------
--------------------------------
---5-4-5---5-4-5---5-4-5-7-5-4--   X2
-------------------------------5
--------------------------------

guitare 2
-----------------------------
-----------------------------
---------555---------5555----
---222---555---222---55552222
---222---333---222---33332222
---000---------000-------0000


couplet

refrain


RIFF*3

guitare 1
------------------------------------
------------------------------------
------------------------------------
---222222222222222-55555555-44444444  X4 (avec le refrain) 
------------------------------------  X1 (sans le refrain)
------------------------------------

-------------------------------------------------------   
-------------------------------------------------------
-------------------4-----------4-----------------------
---2--2--5-4-2-4-5---5-4-0-4-5---5-4-0-4-7-4-5-7-5-4-5-  X4
-------------------------------------------------------
-------------------------------------------------------

guitare 2
 REFRAIN


refrain (normal)

si vous avez des questions : romeo.md@caramail.com
Suggest correction
comments
print report bad tab
4 comments total. Showing first comments.
-1 reply
gibsg 10 Dec 29, 2002 12:00 AM

intro


e -------------------------------------
B -------------------------------------
G 999999-------------------- 444444----
D 999999---1010101010- 55555-444444----
A 777777---1010101010- 55555-222222----
E ---------8-8-8-8-8-- 33333-----------

0 reply
Emano123 31 Apr 29, 2008 05:01 PM

this tab suck ass

-1 reply
Emano123 31 Apr 29, 2008 05:01 PM

this tab suck ass

guest
You may want to rate the tab now too:
select rating
Wanna post a correction for this tab? Suggest correction