Oops, an error
Loading. Please wait.

Still Waiting Bass Tab

version 6
1,003 views 1 this week
no commentswrite comment
1 2 3 4 5
please rate
add to favorites
launch autoscroll
font size
0
reset
guitar tuner
Tab Pro tools
  • play this tab
  • loop segment
  • change instrument
  • show fretboard
  • metronome
×
Best way to learn
"Still Waiting"
Autoscroll
slow
fast
+/-
esc
set tempo
stop
Contributor
Difficulty
Tuning
intermediate
D G C F A D
G-------------------------------------------------------------------|
D-------------------------------------------------------------------|
A-------------------3-3-3-3-3-3-3-3-----------------3-3-3-3-2-2-2-2-| X2
D-2-2-2-2-2-2-2-2-2-----------------2-2-2-2-2-2-2-2-----------------|

G------------------------------------------|
D------------------------------------------|
A----------------1-0---1-0-----------------|
D-2--2-2-222-222-----2-----5-7-2-2-222-222-|

G-------------------------------------------|
D-------------------------------------------|
A---------------------------1-0---1-0---1-0-|
D-5---5---5--2--2-2-222-222-----2-----2-----|

G------------------------------------------------|
D------------------------------------------------|
A---------------0-2-2-2-2-2-5-5-5----------------|
D-5-5-5-5-5-5-5-------------------2--2-2-222-222-|

G--------------------------------------------|
D--------------------------------------------|
A-1-0---1-0----------------------------------|
D-----2-----2-5/7-2--2-2-222-222-5---5---5---|

G------------------------------------------------|
D------------------------------------------------|
A----------------1-0---1-0---1-0---------------0-|
D-2--2-2-222-222-----2-----2-----5-5-5-5-5-5-5---|

G-----------------------------------------------|
D-9-9-9-9-9-9----9-9-9-9-9-9/-------------------|
A-------------2/--------------------------------|
D-------------------------------2-2-2-2-2-2-2-2-|

G---------------------------------------------------------------|
D-----------------------------------------------2-2-2-2-2-2-2-2-|
A-3-3-3-3-3-3-3-3-----------------2-2-2-2-2-2/5-----------------|
D-----------------5-5-5-5-5-5-5-5-------------------------------|

G---------------------------------------------------------------|
D---------------------------------------------4-0---------------|
A-3-3-3-3-3-3-3-3-----------------2-2-2-2-2-2-------------------|
D-----------------5-5-5-5-5-5-5-5-----------------2-2-2---------|

G------------------------------------------------------------|
D------------------------------------------------------------|
A-3-3-3-----------------------3-3-3-3-2-2-2-2----------------|
D---------------2-2-2-------------------------2--2-2-222-222-|

G--------------------------------------------|
D--------------------------------------------|
A-1-0---1-0----------------------------------|
D-----2-----2-5/7-2--2-2-222-222-5---5---5---|

G------------------------------------------------|
D------------------------------------------------|
A----------------1-0---1-0---1-0---------------0-|
D-2--2-2-222-222-----2-----2-----5-5-5-5-5-5-5---|

G----------------------------------------------|
D----------------------------------------------|
A-2-2-2-2-2-5-5-5----------------1-0---1-0-----|
D-----------------2--2-2-222-222-----2-----5/7-|

G------------------------------------------|
D------------------------------------------|
A------------------------------------------|
D-2--2-2-222-222-5---5---5--2--2-2-222-222-|

G------------------------------------------------|
D---------------------------------9-9-9-9-9-9----|
A-1-0---1-0---1-0---------------0-------------2/-|
D-----2-----2-----5-5-5-5-5-5-5------------------|

G--------------------------------------------------------------|
D-9-9-9-9-9-9/-------------------------------------------------|
A------------------------------3-3-3-3-3-3-3-3-----------------|
D--------------2-2-2-2-2-2-2-2-----------------5-5-5-5-5-5-5-5-|

G-----------------------------------------------------------------|
D-----------------2-2-2-2-2-2-2-2-----------------5-5-5-5-5-5-5-5-|
A-2-2-2-2-2-2-2/5-----------------3-3-3-3-3-3-3-3-----------------|
D-----------------------------------------------------------------|

G---------4-4-4-4-------------------------------------------------|
D-4-4-4-4---------------------------------------------------------|
A---------------------------------3-3-3-3-3-3-3-3-----------------|
D-----------------2-2-2-2-2-2-2-2-----------------5-5-5-5-5-5-5-5-|

G----------------------------------------------------------------------|
D----------------------------------------------------------------------|
A-2-2-2-2-2-2-2-2-----------------3-3-3-3-3-3-3-3-----------------2(8)-|
D-----------------2-2-2-2-2-2-2-2-----------------5-5-5-5-5-5-5-5------|

G---------------------------------|
D---------------------------------|
A-----------------3-3-3-3-5-5-5-5-| X3
D-2-2-2-2-2-2-2-2-----------------|

G-------------------------------------------------------------|
D-2-2-2-2-2-2-2-2-5-5-5-5-------------------------------------|
A-------------------------5-5-5-5----------------3-3-3--------|
D---------------------------------2-2-2-----------------------|

G-------------------------------------------------------|
D-------------------------------------------------------|
A---------------2-2-2----------------------3-3-3--3--3--|
D-5-5-5-----------------------2-2-2--2--2---------------|

G-----------------------------------------------------|
D-----------------------------------------------------|
A--------------2-2-2---------------------3-3-3--3--3--|
D-5-5-5--5--5----------0--0-2-2-2--2--2---------------|

G------------------------------------------------------|
D-------------------------7/---------------------------|
A--------------2-2-2-2-2/-----------------3-3-3--3--3--|
D-5-5-5--5--5----------------2-2-2--2--2---------------|

G-----------------------------------------------------|
D-----------------------------------------------------|
A--------------2-2-2--2--2---------------3-3-3--3--3--|
D-5-5-5--5--5---------------2-2-2--2--2---------------|

G-------------4-4-4-4-4-4---------------------|
D----------------------------9-9-9-9-9-9/-----|
A-------------------------2/------------------|
D-5-5-5-5--5----------------------------------|

G-------------------------------------------------|
D-------------------------------------------------|
A-----------------3-3-3-3-3-3-3-3-----------------|
D-2-2-2-2-2-2-2-2-----------------5-5-5-5-5-5-5-5-|

G-----------------------------------------------------------------|
D-----------------------------------------------------------------|
A-2-2-2-2-2-2-2-2-----------------3-3-3-3-3-3-3-3-----------------|
D-----------------2-2-2-2-2-2-2-2-----------------5-5-5-5-5-5-5-5-|

G-----------------------------------------------------------------|
D-----------------2-2-2-2-2-2-2-2---------------------------------|
A-2-2-2-2-2-2-2-2-----------------3-3-3-3-3-3-3-3-----------------|
D-------------------------------------------------5-5-5-5-5-5-5-5-|

G----------------------------------------------------------------|
D-----------------2-2-2-2-2-2-2-2----------------5-5-5-5-5-5-5-5-|
A-2-2-2-2-2-2-2-2-----------------3-3-3-3-3-3-3/-----------------|
D----------------------------------------------------------------|

G---------4-4-4-4-------------------|
D-4-4-4-4---------------------------|
A-----------------------------------|
D-----------------2-2-2-2-2-2-2-2-2-|
comments
We did not receive enough feedback on this tab! Please rate:
print report bad tab
1 2 3 4 5
I want to post or [tab]
guest
You may want to rate the tab now too:
select rating
Please do not post tabs as comments. Select "correction" instead!