Oops, an error
Loading. Please wait.

Subject To Change Tab

version 1
version 1

Whole song

Interactive

21,361 views 24 this week
9 commentsread comments
1 2 3 4 5
excellent!
x 10
add to favorites
launch autoscroll
font size
0
reset
how to read this tab
guitar tuner
Tab Pro tools
  • play this tab
  • loop segment
  • change instrument
  • show fretboard
  • metronome
Autoscroll
slow
fast
+/-
esc
set tempo
stop
Contributor
Subject to Change(Bonus Track) by Sum 41 on Chuck
good song
tunning:half step (Eb Ab Db Gb Bb Eb) low to high

Intro part 1
riff 1   x4
Eb|--7----7-----8----7-|------|
Bb|--8----8-----8----8-|------|
Gb|-9-9--9-9---9-9--9-9|------|
Db|9----9----10----9---|------|
Ab|--------------------|-2-2-2|x2
Eb|--------------------|-0-0-0|
pm                       .....

After playing riff 1 twice the rhythem changes to this, play last 2 times 
Eb|-----|
Bb|-----|
Gb|5-4--|
Db|5-4-2|
Ab|3-2-2|
Eb|----0|

Intro part 2
Eb|------------------------------------------------------------------|
Bb|----8-7-----8-7-----8-7-8-7-8-7-----8-7-----8-7-----8-7-10-8-7-8-7|
Gb|---7-------7-------7---------------7-------7-------7--------------|
Db|9-9-----9-9-----9-9-------------9-9-----9-9-----9-9---------------|
Ab|------------------------------------------------------------------|
Eb|------------------------------------------------------------------|
pm ....    ....    ....            ....    ....    ....              |
rythem guitar                                                        |
Eb|------------------------------------------------------------------|
Bb|------------------------------------------------------------------|
Gb|------------------------------------------------------------------|
Db|2-2-2-2-2-2-2-2-2-2-2-2-2-2-2-2-2-2-2-2-2-2-2-2-2-2-2-2-2-2-2-2-2-|
Ab|2-2-2-2-2-2-2-2-2-2-2-2-2-2-2-2-2-2-2-2-2-2-2-2-2-2-2-2-2-2-2-2-2-|
Eb|0-0-0-0-0-0-0-0-0-0-0-0-0-0-0-0-0-0-0-0-0-0-0-0-0-0-0-0-0-0-0-0-0-|
pm...............................................

Intro part 3
Eb|0-0-0-0--0-0-0-0-0-0-0-0--0-0-0-0|
Bb|8-7-8-10-8-5-7-3-8-7-8-10-8-5-7-3|
Gb|---------------------------------|
Db|---------------------------------|
Ab|---------------------------------|
Eb|---------------------------------|
rythem guitar                       |x2
Eb|---------------------------------|
Bb|---------------------------------|
Gb|--------7-7-7-7-5-5-5-5-----7-7--|
Db|2-2-2-2-7-7-7-7-5-5-5-5-5-5-7-7--|
Ab|2-2-2-2-5-5-5-5-3-3-3-3-5-5-5-5--|
Eb|0-0-0-0-----------------3-3------|

Verse
Eb|-----------------------------------------------|
Bb|-----------------------------------------------|
Gb|-----------------------------------------------|
Db|----4---5p4-----4-----7-----4---5p4-----4-----7|x4
Ab|------------5-5---5-5---3-3---3-----5-5---5-5--|
Eb|0-0---0----------------------------------------|
pm....   .       .   ...   ...   .       .   ...

Chorus
Eb|-------|
Bb|-------|
Gb|5---7-7|
Db|5-5-7-7|x4
Ab|3-5-5-5|
Eb|--3----|
play chords more than once

after chorus play intro part 3

after intro part 3 go to the verse

after second verse play chorus

Bridge part 1
Eb|---------|
Bb|---------|
Gb|--5---4-2|
Db|2-5-5-4-2|x4 after fourth time let Eb chord ring out
Ab|2-3-5-2-0|
Eb|0---3----|
listen for rythem and play chords more than once

Bridge part 2
Eb|---------|
Bb|---------|
Gb|5----4---|
Db|5----4--2|x6
Ab|3----2--2| 
Eb|--------0|
after third time play intro part 2 tabs in the background

now play the chorus and thats it

tabbed by Kyle thanks to Gabe for tabing verse for me
comments
print report bad tab
9 comments total. Showing first comments.
0 reply
Patallica wrote on July 18 2005, 12:00 am

wtf i dont remember there being a bonus track on chuck...?

0 reply
Cone 21 wrote on July 18 2005, 12:00 am

i thought the bonus track on Chuck was called Noots

0 reply
toledo wrote on July 18 2005, 12:00 am

how do you get the bonus track? i dont think i have ever heard it...

I want to post or [tab]
guest
You may want to rate the tab now too:
select rating
Please do not post tabs as comments. Select "correction" instead!