Oops, an error
Loading. Please wait.

Subject To Change Tab

version 2
version 2

Whole song

Interactive

4,120 views 3 this week
4 commentsread comments
1 2 3 4 5
x 5
add to favorites
launch autoscroll
font size
0
reset
how to read this tab
guitar tuner
Autoscroll
slow
fast
+/-
esc
set tempo
stop
Help us to improve Ultimate-Guitar.com Take our survey!
×
Author
Difficulty
intermediate
Title: Subject To Change
Artist: Sum 41
Album: Chuck
Tabbed by:Darian
Email:scotty__13@hotmail.com

Guitar 1: Dropped D(D,A,D,G,B,e)
Guitar 2:Down Half Step(Eb,Ab,Db,Gb,Bb,eb)

Intro 1

Guitar 2
|-----1--------1--------1--------1----|
|---3---3----2---3----3---3----3---3--|
|-2--------2--------3--------2--------|
|-------------------------------------|X4
|-------------------------------------|
|-------------------------------------|

Guitar 1(comes in after Guitar 2 has played through 1X)
|-------------------------------------|
|-------------------------------------|
|-------------------------------------|
|-0-0--0------------------------------|X3
|-0-0--0------------------------------|
|-0-0--0------------------------------|
PMX X  X

Intro 2

Guitar 2
|--------------------------------------------------------------------|
|--------------------------------------------------------------------|
|--------------------------------------------------------------------|
|-2-2-2-2-2-2-2-2-2-2-2-2-2-2-2-2-2-2-2-2-2-2-2-2-2-2-2-2-2-2-2-2-2--|
|-2-2-2-2-2-2-2-2-2-2-2-2-2-2-2-2-2-2-2-2-2-2-2-2-2-2-2-2-2-2-2-2-2--|
|-0-0-0-0-0-0-0-0-0-0-0-0-0-0-0-0-0-0-0-0-0-0-0-0-0-0-0-0-0-0-0-0-0--|
PMX X X X X X X X X X X X X X X X X X X X X X X X 

Guitar 1
|--------------------------------------------------------------------|
|-----8-7-----8-7-----8-7-8-7-8-7-----8-7-----8-7-----8-7-10-8-7-8-7-|
|----7-------7-------7---------------7-------7-------7---------------|
|-9-9-----9-9-----9-9-------------9-9-----9-9-----9-9----------------|
|--------------------------------------------------------------------|
|--------------------------------------------------------------------|
PMX X     X X     X X             X X     X X     X X 

Intro 3

Guitar 2
|----------------------------------|
|----------------------------------|
|---------7-7-7-7-5-5-5-5-----7-7--|
|-2-2-2-2-7-7-7-7-5-5-5-5-5-5-7-7--|X2
|-2-2-2-2-5-5-5-5-3-3-3-3-5-5-5-5--|
|-0-0-0-0-----------------3-3------|

Guitar 1
|----------------------------------|
|-8-7-8-10-8-5-7-3-8-7-10-8-5-7-3--|
|----------------------------------|
|----------------------------------|X2
|----------------------------------|
|----------------------------------|

Verse

Guitar 1
|--------------------------------------------|
|--------------------------------------------|
|--------------------------------------------|
|-----4---5-4-----4-----7-----4---5-4-----7--|
|-------------5-5---5-5---3-3---3-----5-5----|
|-2-2---2------------------------------------|
PMX X  X      X X   X X   X X   X     X X 

Chorus 

Guitar 2
|------------------------------------------------------------------|
|------------------------------------------------------------------|
|-5-5-5-5-5-5-5-5-----------------7-7-7-7-7-7-7-7-7-7-7-7-7-7-7-7--|
|-5-5-5-5-5-5-5-5-5-5-5-5-5-5-5-5-7-7-7-7-7-7-7-7-7-7-7-7-7-7-7-7--|
|-3-3-3-3-3-3-3-3-5-5-5-5-5-5-5-5-5-5-5-5-5-5-5-5-5-5-5-5-5-5-5-5--|
|-----------------3-3-3-3-3-3-3-3----------------------------------|

Guitar 1
|------------------------------------------------------------------|
|------------------------------------------------------------------|
|-5-5-5-5-5-5-5-5-----------------7-7-7-7-7-7-7-7-7-7-7-7-7-7-7-7--|
|-5-5-5-5-5-5-5-5-5-5-5-5-5-5-5-5-7-7-7-7-7-7-7-7-7-7-7-7-7-7-7-7--|
|-3-3-3-3-3-3-3-3-5-5-5-5-5-5-5-5-5-5-5-5-5-5-5-5-5-5-5-5-5-5-5-5--|
|-----------------5-5-5-5-5-5-5-5----------------------------------|

Intro 3

Verse

Chorus

Bridge 1 

Guitar 1
|------------------------------------------------------------------|
|------------------------------------------------------------------|
|-----------------5-5-5-5-5-5-5-5-----------------4-4-4-4-2-2-2-2--|
|-2-2-2-2-2-2-2-2-5-5-5-5-5-5-5-5-5-5-5-5-5-5-5-5-4-4-4-4-2-2-2-2--|X4
|-2-2-2-2-2-2-2-2-3-3-3-3-3-3-3-3-5-5-5-5-5-5-5-5-4-4-4-4-0-0-0-0--|
|-2-2-2-2-2-2-2-2-----------------5-5-5-5-5-5-5-5------------------|

Bridge 2

Guitar 1
|-------------------------------------------------------------------|
|-------------------------------------------------------------------|
|-5~--------------------4-4------5~-------------------------4-4-----|
|-5~--------------------4-4-2-2--5~-------------------------4-4-2-2-|X6
|-3~--------------------2-2-2-2--3~-------------------------2-2-2-2-|
|---------------------------2-2---------------------------------2-2-|

Guitar 2 (comes in after Guitar 1 has playes through 3X)
|--------------------------------------------------------------------|
|-----8-7-----8-7-----8-7-8-7-8-7-----87------8-7-----8-7-10-8-7-8-7-|
|----7-------7-------7---------------7-------7-------7---------------|
|-9-9-----9-9-----9-9-------------9-9-----9-9-----9-9----------------|X3
|--------------------------------------------------------------------|
|--------------------------------------------------------------------|
PMX X     X X     X X             X X     X X     X X 

Chorus

| /  slide up
| \  slide down
| h  hammer-on
| p  pull-off
| ~  vibrato
|(5) harmonic
| X  mute note
| b  bend note
| PM palm mute
============================================================================
Suggest correction
comments
print report bad tab
4 comments total. Showing first comments.
0 reply
LSPapercutAP 71 Sep 20, 2006 05:18 PM

great tab but the intro 3 is wrong. If you listen to the song u'll notice that instead of |-8-7-8-10-8-5-7-3-8-7-10-8-5-7-3--| it is actually |-8-7-8-10-8-5-7-3-8-7-8-10-8-7-5-3

0 reply
LSPapercutAP 71 Sep 20, 2006 05:21 PM

also on the verse add an xtra palm mute 5, and then a 7

0 reply
LSPapercutAP 71 Sep 20, 2006 05:27 PM

Your verse is actually wrong
The verse should be like this
Guitar 1
|-----------------------------------------------------|
|-----------------------------------------------------|
|-----------------------------------------------------|
|-----4---5p4p0-----4-----7-----4---5p4p0----7--------|
|---------------5-5---5-5---3-3---3-------5-5--5-5----|
|-2-2---2---------------------------------------------|
PMX X X X X X X X X X X X X X

guest
You may want to rate the tab now too:
select rating
Wanna post a correction for this tab? Suggest correction