Oops, an error
Loading. Please wait.

Subject To Change Tab

version 3
version 3

Whole song

Interactive

1,198 views 3 this week
no commentswrite comment
1 2 3 4 5
please rate
add to favorites
launch autoscroll
font size
0
reset
how to read this tab
guitar tuner
Autoscroll
slow
fast
+/-
esc
set tempo
stop
Help us to improve Ultimate-Guitar.com Take our survey!
×
Author
tuning:half step (Eb Ab Db Gb Bb Eb) low to high

Guitar 1, intro riff

Eb|--7----7-----8----7-|Eb|--7----7-----8----7-|
Bb|--8----8-----8----7-|Bb|--8----8-----8----7-|
Gb|-9-9--9-9---9-9--7-7|Gb|-9-9--9-9---9-9--7-7|
Db|9----9----10----9---|Db|9----9----10----9---|
Ab|--------------------|Ab|--------------------|
Eb|--------------------|Eb|--------------------|

Guitar 2

                        Ab|2-2-2|
                        Eb|0-0-0|
                           . . . 


Eb|--7----7-----8----7-|--7----7-----8----7-|
Bb|--8----8-----8----7-|--8----8-----8----7-|
Gb|-9-9--9-9---9-9--7-7|-9-9--9-9---9-9--7-7|
Db|9----9----10----9---|9----9----10----9---|
Ab|--------------------|--------------------|
Eb|--------------------|--------------------|

Eb|--------------------|--------------------|
Bb|--------------------|--------------------|
Gb|----------5-----4---|----------5-----2---|
Db|----------5-----4---|2---------5-----2---|
Ab|2-2-2-----3-----2---|2---------3-----4---|  
Eb|0-0-0---------------|0-------------------|
   . . . 

Intro cont'd                      1st time    2nd time
Eb|-----------------------------|------------|-------------------------|
Bb|-----8-7-------8-7-------8-7-|8-7-8-7-8-7 |10p8-7h8p7---------------|
Gb|---7---------7---------7-----|------------|-------------------------|
Db|9-9-9-9-9-9-9-9-9-9-9-9-9-9-9|-9-9-9-9-9-9|-------------------------|
Ab|-----------------------------|------------|-------------------------|
Eb|-----------------------------|------------|-------------------------|
   . . . . . . . . . . . . . . .  . . . . . .
   Build it up to a crescendo                  
Eb|------------------------------------------------------------------|
Bb|------------------------------------------------------------------|
Gb|------------------------------------------------------------------|
Db|2-2-2-2-2-2-2-2-2-2-2-2-2-2-2-2-2-2-2-2-2-2-2-2-2-2-2-------------|
Ab|2-2-2-2-2-2-2-2-2-2-2-2-2-2-2-2-2-2-2-2-2-2-2-2-2-2-2-------------|
Eb|0-0-0-0-0-0-0-0-0-0-0-0-0-0-0-0-0-0-0-0-0-0-0-0-0-0-0-------------|
   . . . . . . . . . . . . . . . . . . . . . . 

Main riff - Through twice in the intro, once after the first chorus

Eb|0-0-0-0--0-0-0-0-0-0-0-0--0-0-0-0| Each one is x2
Bb|8-7-8-10-8-5-7-3-8-7-8-10-8-5-7-3|
Gb|---------------------------------|
Db|---------------------------------|
Ab|---------------------------------|
Eb|---------------------------------|

Eb|---------------------------------|
Bb|---------------------------------|
Gb|---------7x8-----5x8----------7x4|
Db|2x8------7-------5--------5x4-7--|
Ab|2--------5-------3--------5---5--|
Eb|0-------------------------3------|

Verse - No lead, just guitar 2
Eb|--------------------------------|
Bb|--------------------------------|
Gb|--------------------------------|
Db|----2-----5p4-------2-------7---|x7
Ab|--------------5-3-3---3-5-5---5-|
Eb|0-0---0-0-----------------------|
   . .   . .       . .   . . .   . 
Eighth and last time

Eb|--------------------------------|
Bb|--------------------------------|
Gb|----------------7x8-------------|
Db|----2-----5p4-0-7---------------|
Ab|----------------5---------------|
Eb|0-0---0-0-----------------------|

Chorus - The rhythm is easy to figure out 
Eb|-------|
Bb|-------|
Gb|5---7-7|
Db|5-5-7-7|x4
Ab|3-5-5-5|
Eb|--3----|

Middle section - Again, the rhythm is easy to figure out
Eb|-----------|
Bb|-----------|
Gb|--5---4-7--|
Db|2-5-5-4-7--|
Ab|2-3-5-2-5--|
Eb|0---3------|

The rest of the song is just made up of other parts.

Please rate, enjoy!


Suggest correction
Give kudos to tab author, rate the tab!
1 2 3 4 5
comments
print report bad tab
guest
You may want to rate the tab now too:
select rating
Please do not post tabs as comments. Select "correction" instead!