Oops, an error
Loading. Please wait.

Subject To Change Tab

version 4
version 4

Whole song

Interactive

116 views 1 this week
no commentswrite comment
1 2 3 4 5
please rate
add to favorites
launch autoscroll
font size
0
reset
how to read this tab
guitar tuner
Tab Pro tools
  • play this tab
  • loop segment
  • change instrument
  • show fretboard
  • metronome
×
Best way to learn
"Subject To Change"
Autoscroll
slow
fast
+/-
esc
set tempo
stop
Contributor
Subject To Change

Key: F#

Tuning: Standard EADGBe

Chords used:
Ebm - x68876
B -   x24442
Bbm - x13321
F# -  244322
C# -  x46664


Intro:

Part 1:

Dave:
     Ebm        B        Bbm
e|-----6---|-----7---|-----6---|
B|-----7---|-----7---|-----7---|
G|---8---8-|---8---8-|---8---8-|
D|-8-------|-9-------|-8-------| x4
A|---------|---------|---------|
E|---------|---------|---------|
     x2


Deryck: Ebm--
Ebm--B-Bb x2


Cone:
  Ebm
G|---
D|---
A|-6-
E|---

        Ebm             B        Bbm
G|-----------------|---------|---------|
D|-1-4-3-4-1-4-3-4-|---4-3-4-|---3---3-|
A|-----------------|-2-------|-1---4---| x2
E|-----------------|---------|---------|


Part 2:


Dave: Ebm
e|---------2---1---|-2---1---2---1---|
B|-----2-----------|-----------------|
G|-----------------|-----------------|
D|-1-1---1---1---1-|---1---1---1---1-|
A|-----------------|-----------------|
E|-----------------|-----------------|
         x3

e|---------2---1---|-4-2-1-2-1-|
B|-----2-----------|-----------|
G|-----------------|-----------|
D|-1-1---1---1---1-|-----------|
A|-----------------|-----------|
E|-----------------|-----------|
         x3


Deryck: Ebm--


Cone:
G|----------------------------|
D|----------------------------|
A|-6-6-6-6-6-6-6-6---| x8
E|----------------------------|


Part 3:

Dave: x2

e|-2-2-1-1-2-2-4-4-2-2-----1-1-----|
B|---------------------4-4-----2-2-|
G|---------------------------------|
D|-4-4-3-3-4-4-6-6-4-4-----3-3-----|
A|---------------------6-6-----4-4-|
E|---------------------------------|


  S S S S S S S S S S S S S S S S    S S S S S S S S S S S S S S S S
--2-2-1-1-2-2-4-4-2-2-1-1---------|--2-2-1-1-2-2-4-4-2-2-----1-1-----|
--------------------------4-4-2-2-|----------------------4-4-----2-2-|
----------------------------------|----------------------------------|
--4-4-3-3-4-4-6-6-4-4-3-3-1-------|--4-4-3-3-4-4-6-6-4-4-----3-3-----|
----------------------------6-4-4-|----------------------6-6-----4-4-|
----------------------------------|----------------------------------|


  S S S S S S S S S S S S S S S S
--2-2-1-1-2-2-4-4-2-2-1-1---------|
--------------------------4-4-2-2-|
----------------------------------|
--4-4-3-3-4-4-6-6-4-4-3-3-1-------|
----------------------------6-4-4-|
----------------------------------|


Deryck: Ebm--C#--B--F#-C#- x2

Cone:
     Ebm        C#        B       F#   C#
G|---------|---------|---------|-----|-----|
D|-1-1-1-1-|---------|---------|-----|-----|
A|---------|-4-4-4-4-|-2-2-2-2-|-----|-4-4-| x2
E|---------|---------|---------|-2-2-|-----|

Verse 1:
Ebm        F#
How can we fake this
    Bbm     C#
And take anymore?
Ebm        F#
Looking up blindly
    Bbm      C#
And try to ignore
     Ebm       F#
It's better to miss it
        Bbm         C#
There's no point of view
     Ebm    F#
It's only a problem
        Bbm        C#
when it happens to you


Dave: Verses
e|---------------------------------|
B|---------------------------------|
G|------------------------------1--|
D|-1-1-1-1-1-4-3-------3-----------|
A|---------------4-1-1---1-4-4---4-| x4
E|---------------------------------|


e|---------------------------------|
B|---------------------------------|
G|---------------------------------|
D|-----------4-3---6-6-6-6-6-6-6-6-|
A|---------------4-4-4-4-4-4-4-4-4-|
E|-1-1-1-1-1-----------------------|

Refrain 1:
     Ebm
Well thanks for
F#     Bbm     C#
making this so easy
Ebm        F#
What's the point
   Bbm     C#
if it's so easy?
Ebm     F#
Why the fuck is
Bbm   C#
it so easy?
Ebm   F# C#
Why's it don't
you say?


Both Deryck and Dave: Refrain
e|---------------------------------|
B|---------------------------------|
G|------------------------------1--|
D|-1-1-1-1-1-4-3-------3-----------|
A|---------------4-1-1---1-4-4---4-| x3
E|---------------------------------|


e|---------------------------------|
B|---------------------------------|
G|---------------------------------|
D|-----------4-3---6-6-6-6-6-6-6-6-|
A|---------------4-4-4-4-4-4-4-4-4-|
E|-1-1-1-1-1-----------------------|


Chorus: also the same chorus with their song UNDERLCASS HERO!!!
    B           F#
Coz we're doing fine
       C#
And we don't need
to be told
    B           F#
And we're doing fine
        C#
Coz' we won't give
you control
       B
And we don't need
F# C#
anything from you
          B       F#
And we'll be just fine
        C#
Coz' we won't be
bought and sold
Just like you


(Repeat Intro Part 3 Once)


Verse 2:
Ebm         F#
Lies in the sender
     Bbm        C#
When nothing is true
Ebm         F#
Don't be surprised
When it all
Bbm           C#
comes back to you
    Ebm      F#
Are you on a mission
   Bbm         C#
To lose our control?
   Ebm
Or waiting for
F#       Bbm  C#
tradgedy to unfold?


Refrain 2:
     Ebm       F#
What makes you think
     Bbm     C#
that it's so easy?
  Ebm     F#
I don't believe
      Bbm   C#
it'll be so easy
Ebm     F#
Why the fuck would
Bbm      C#
it be so easy?
Ebm   F# C#
Why's it don't
you say?


(Repeat Chorus)


Bridge:
Ebm          B
  So how long has this gone
F#        Bbm      C#
  I don't see this ending
Ebm            B
  It's too late we can't change
F#         Bbm   C#
  What has now begun
Ebm          B
  We act like it's not right
F#         Bbm   C#
  What are we protecting
Ebm               B
  We've been wrong for so long
F#                 Bbm C# Ebm(hold)--B--Bbm x2
  We've known this all a--long


Verse 3:
Ebm
  You created these problems
B                    Bbm
  And you don't know what to do
Ebm
  You know you can solve them
B                  Bbm
  But you can't be bothered to
Ebm
  You created these problems
B                    Bbm
  And you don't know what to do
Ebm
  You know you can solve them
B                  Bbm
  But you can't be bothered to


Dave: Verse 3:
e|---------2---1---|-2---1---2---1---|
B|-----2-----------|-----------------|
G|-----------------|-----------------|
D|-1-1---1---1---1-|---1---1---1---1-|
A|-----------------|-----------------|
E|-----------------|-----------------|
         x3

e|---------2---1---|-4-2-1-2-1-|
B|-----2-----------|-----------|
G|-----------------|-----------|
D|-1-1---1---1---1-|-----------|
A|-----------------|-----------|
E|-----------------|-----------|
         x3


Cone: Verse 3:
        Ebm             B        Bbm
G|-----------------|---------|---------|
D|-1-4-3-4-1-4-3-4-|---4-3-4-|---3---3-|
A|-----------------|-2-------|-1---4---| x2
E|-----------------|---------|---------|


(Repeat Chorus)


End on Ebm

_________________________________________

16.) Moron

Key: F#

Tuning: Standard EADGBe

Chords used:
Ebm -  x68876
B -    x24442
F# -   244322
C# -   x46664
E -    022100 or 079900
C#/F - 143xxx


Intro: Ebm-F#-B-C# x4


Verse 1:
Ebm          F#
  It’s hard enough to
     B       C#
even fake a smile
Ebm    F#
  disillusioned
    B    C#
I’m in denial
Ebm
  There’s something
F#            B
missing cause I
      C#     Ebm
can’t feel a thing
F#  B    C#
I’m desensitized


Chorus:
Ebm       B
  You can fake this and
F#        C#/F    Ebm
  I can’t take anymore
    B      F#
I’m not so tough
          C#/F
I can’t ignore
(Repeat)


Post Chorus:
   Ebm E x2
Anymore


Verse 2:
Ebm(hold)
All this confusion
is running deep
inside my head
How long can I
keep this up
before I end up dead?
Ebm        F#
  Can’t believe that it
B             C#
could come to this
Ebm         F#
  It’s only feelings
     B       C#
so I can’t resist
Ebm           F#
  I’m falling deeper
     B
in denial but
C#      Ebm F#
I still try to
  B        C#
Believe in something


(Repeat Chorus)


Outro:
   Ebm F# B C#
Anymore
(Repeat x4)


Ebm--E(hold)
comments
We did not receive enough feedback on this tab! Please rate:
print report bad tab
1 2 3 4 5
I want to post or [tab]
guest
You may want to rate the tab now too:
select rating
Please do not post tabs as comments. Select "correction" instead!