Oops, an error
Loading. Please wait.

Take A Look At Yourself tab

version 1
version 1

Whole song

Interactive

by Sum 41
4,219 views 1 this week
5 commentsread comments
1 2 3 4 5
x 5
add to favorites
×
Save as Personal and add changes to this tab that will be seen only by you. Learn more ›
×
You can save this tab as Personal to edit and correct it or add notes. All changes will be seen only by you. Learn more »
launch autoscroll
font size
0
reset
how to read this tab
guitar tuner
edit
Autoscroll
slow
fast
+/-
esc
set tempo
stop
Author
Difficulty
This is a bonus track from Underclass Hero, I think you have to buy it on iTunes...

This song is in standard tuning...if you have it dropped down..well....you can't play it basically.


~~~Intro~~~
e|--------------------------------------------------|
B|--------------------------------------------------|
G|-99--99--99--99--999-----99--99--99--99--999------|Repeat as nescessary.
D|-xx--xx--xx--xx--xxx-----xx--xx--xx--xx--xxx------|Listen to song for rhythm.
A|-77--77--77--77--777-----77--77--77--77--777------|
E|--------------------------------------------------|

e|--------------------------------------------------|
B|--------------------------------------------------|
G|-------------666--22222--444--444-----------------|
D|-22222--666--666--22222--444--444-----------------|x2
A|-22222--666--444--00000--222--222-----------------|
E|-00000--444---------------------------------------|


~~~Verse~~~ (As usual, dots mean palm muted)

Well, teachers always told me that I had to have a plan....
e|--------------------------------------------------|
B|--------------------------------------------------|
G|-----------44444444--66666666---22-2-22-2-2-2-----|
D|-22222222--44444444--66666666---22-2-22-2-2-2-----|
A|-22222222--22222222--44444444---00-0-00-0-0-0-----|
E|-00000000-----------------------------------------|
   ........  ........  ........   ..   ..   .

But their preaching something they don't understand....
e|--------------------------------------------------|
B|--------------------------------------------------|
G|-22222222------------66-6-666-6-666-6-666-66------|
D|-22222222--22222222--66-6-666-6-666-6-666-66------|
A|-00000000--22222222--44-4-444-4-444-4-444-44------|
E|-----------00000000-------------------------------|
   ........  ........  ..   ...   ...   ...

The little Hitlers of...
e|--------------------------------------------------|
B|------------------------Repeat as necessary, then-|
G|-99-9-999-9-999-9-999-9-------------22222222------|
D|-99-9-999-9-999-9-999-9-------------22222222------|
A|-77-7-777-7-777-7-777-7-------------00000000------|
E|--------------------------------------------------|
   ..   ...   ...   ...


~~~Pre-Chorus~~~

e|--------------------------------------------------|
B|--------------------------------------------------|
G|-66666--2222222--99999--4444444-------------------|
D|-66666--2222222--99999--4444444-------------------| x2
A|-44444--0000000--77777--2222222-------------------|
E|--------------------------------------------------|

Saviour or....
e|--------------------------------------------------|
B|--------------------------------------------------|
G|-2222222222222222--4444444444444444---------------|
D|-2222222222222222--4444444444444444---------------|
A|-0000000000000000--2222222222222222---------------|
E|--------------------------------------------------|


~~~Chorus~~~

I can't help you...
e|--------------------------------------------------|
B|--------------------------------------------------|
G|-99999--44444--66666---------22222222--44444444---|
D|-99999--44444--66666--66666--22222222--44444444---| x2
A|-77777--22222--44444--66666--00000000--22222222---|
E|----------------------44444-----------------------|

e|--------------------------------------------------|
B|--------------------------------------------------|
G|--------------------------------------------------|
D|-22-22-22-----------------------------------------|
A|-22-22-22-----------------------------------------|
E|-00-00-00-----------------------------------------|


~~~Verse 2~~~ (Same As Before, another guitar in the background though)

~~~Pre-Chorus~~~ (Same As Before)

~~~Chorus~~~ (Same As Before)


~~~Cool Riff~~~

e|--------------------------------------------------|
B|--------------------------------------------------|
G|--------------------------------------------------|
D|--------------------------------------------------| x 6
A|-2210--00--2221007--------------------------------|
E|--------------------------------------------------|


~~~Bridge~~~

e|--------------------------------------------------|
B|--------------------------------------------------|
G|-99999-------666--22222-44444444------------------|
D|-99999--666--666--22222-44444444--x2----2---------|
A|-77777--666--444--00000-22222222--------2-let ring|
E|--------444-----------------------------0---------|


~~~Chorus~~~ (Repeat as necessary)


~~~Outro~~~
e|--------------------------------------------------|
B|--------------------------------------------------|
G|--------------------------------------------------|
D|-22-22-22-----------------------------------------|
A|-22-22-22-----------------------------------------|
E|-00-00-00-----------------------------------------|


And thattttts it. It's a pretty easy song to play and it didn't take me long to figure 
out...the riff gave me the most trouble I think, but otherwise it was ok. I don't think 
any mistakes, but yeah, email me with corrections: liquid_fumes@hotmail.com

            
            
Suggest correction
Creating personal tab
Creating personal tab
You can edit any tab online and save it as your Personal.

You can edit, replace or remove any tab part or add personal notes – all changes will be seen only by you.

Personal tabs can be accessed anytime from any device, even offline.
Learn more »
comments
print report bad tab
5 comments total. Showing first comments.
+1 reply
iambeterthanu 10 Aug 18, 2007 07:50 PM

nice tab dude
only thing is i think that

e|--------------------------------------------------|
B|--------------------------------------------------|
G|--------------------------------------------------|
D|--------------------------------------------------| x 6
A|-2210--00--2221007--------------------------------|
E|--------------------------------------------------|

is easier when u play it like

e|--------------------------------------------------|
B|--------------------------------------------------|
G|--------------------------------------------------|
D|-----------------2--------------------------------| x 6
A|-2210--00--222100---------------------------------|
E|--------------------------------------------------|

u dont have 2 move ur finger so far
its easier for me.. just tellin u
nice tab sounds a lot like green day

0 reply
LilPunkDave 10 Sep 25, 2007 05:15 PM

Dude amazing tab dude!!!

0 reply
sum41rules 10 Dec 04, 2007 07:33 AM

dunno bout u but i find this much easier n
practical:

e|--------------------------------------------------|
B|-------------------------------------------------
-|
G|--------------------------------------------------|
D|--------------------------------------------------| x
6
A|------------------7-------------------------------|
E|-7765--56--777655---------------------------------|

also
i think its better if u play all the
e|----------| e|-----------|
B|----------|
B|-----------|
G|-22-22-22-| power chords as G|-----------|
D|-22-22-22-|
D|-77-77-77--|
A|-00-00-00-| A|-77-77-77--|
E|----------| E|-55-55-55--|

gr8 tab
anyway i was gonna put 1 up but uve already done it so it sounds perfect!

-x-sum 41 rules-x-

guest
You may want to rate the tab now too:
select rating
Wanna post a correction for this tab? Suggest correction