Oops, an error
Loading. Please wait.

Thanks For Nothing bass

version 1
version 1

Whole song

Interactive

by Sum 41
5,792 views 3 this week
3 commentsread comments
1 2 3 4 5
x 6
add to favorites
×
Save as Personal and add changes to this tab that will be seen only by you. Learn more ›
×
You can save this tab as Personal to edit and correct it or add notes. All changes will be seen only by you. Learn more »
launch autoscroll
font size
0
reset
guitar tuner
edit
Autoscroll
slow
fast
+/-
esc
set tempo
stop
Author
Intro (after simple guitar chords):
---------------------------------------------------------
---------------------------------------------------------
---55555555--11111111---------------33333333-------------
----------------------------11111111--------------------- x2

Verse ("I'll never take part in the..."):
---------------------------------------------------------
---------------------------------------------------------
---55------11-11-------3-3333---55------11-11------3-333-
--------------------11-----------------------------11----

Bridge ("So jaded frustrated it's all so..."):
------------------------------------------------------
------------------------------------------------------
---55555555--1111111----------------33333333----------
---------------------------11111111------------------- x2

Chorus ("I've heard this all before..."):
------------------------------------------------------
------------------------------------------------------
---5-555555--1-111111--8-888888--3-333333-------------
------------------------------------------------------ x2

Intro x2
verse x2
bridge x2
chorus x2

Play VERY fast:
--------------------------------------------------------------
--------------------------------------------------------------
--55555555555555--111111111111-------------------33-5--33-5---
----------------------------------------111111111111----------

--------------------------------------------------------------
--------------------------------------------------------------
--55555555555555--111111111111-------------------333-444------
----------------------------------------111111111111----------

--------------------------------------------------------------
--------------------------------------------------------------
--55555555555555--55555555--88888888888--33-5--33-5-----------
--------------------------------------------------------------

--------------------------------------------------------------
--------------------------------------------------------------
--55555555555555--111111111111-------------------333-444------
----------------------------------------111111111111----------

chorus x2

intro x4

            
            
Suggest correction
Creating personal tab
Creating personal tab
You can edit any tab online and save it as your Personal.

You can edit, replace or remove any tab part or add personal notes – all changes will be seen only by you.

Personal tabs can be accessed anytime from any device, even offline.
Learn more »
comments
print report bad tab
3 comments total.
0 reply
fenderdoj 10 Oct 11, 2007 06:57 AM

correction for chorus

------------------------------------------------------
-----------------------3-333333------------------------------
---5-555555--1-111111------------3-333333-------------
------------------------------------------------------ x2

0 reply
ty36 10 Nov 02, 2008 06:22 AM

pretty damn close tho i think the fast bit is played differently
same start but end it on:
--------- ------
--------- and ------
--------- ------
00-1-00-1 000111

0 reply
ty36 10 Nov 02, 2008 06:24 AM

(fenderdoj) thats not really a correction is it?
its just playing the same thing in a different place

guest
You may want to rate the tab now too:
select rating
Wanna post a correction for this tab? Suggest correction