Oops, an error
Loading. Please wait.

The Fall And The Rise Bass Tab

70 views 1 this week
no commentswrite comment
1 2 3 4 5
3 more votes to show rating
add to favorites
launch autoscroll
font size
0
reset
guitar tuner
Autoscroll
slow
fast
+/-
esc
set tempo
stop
Help us to improve Ultimate-Guitar.com Take our survey!
×
Tabbed By:Josecar
Album:13 Voices
Band:Sum 41
Song:The Fall And The Rise
Date:2016
My YT Channel Of Bass Cover:https://www.youtube.com/channel/UCg9O-Rug1KEvY3jmKHY8R-Q
(Write me a coment if you want any bass tab)








[Intro]
G|------------------------------|
D|------------------------------|
A|--9----5--2--5--7--2--5--7----| X2
E|------------------------------|



[Verse]
G|---------------------------------------------------------------------------|
D|---------------------------------------------------------------------------|
A|-----------------------------------------------------2-2-2-2-2-2-2-2-------| X2
E|--2-2-2-2-2-2-2-2--5-5-5-5-5-5-5-5--0-0-0-0-0-0-0-0------------------------|

G|--------------------------|
D|--------------------------|
A|--9--12--11----7--12--14--|
E|--------------------------|



[Intro 2]
G|------------------------------|
D|------------------------------|
A|--9----5--2--5--7--2--5--7----| X2
E|------------------------------|



[Verse 2]
G|---------------------------------------------------------------------------|
D|---------------------------------------------------------------------------|
A|-----------------------------------------------------2-2-2-2-2-2-2-2-------| X2
E|--2-2-2-2-2-2-2-2--5-5-5-5-5-5-5-5--0-0-0-0-0-0-0-0------------------------|

G|--------------------------|
D|--------------------------|
A|--9--12--11----7--12--14--|X2
E|--------------------------|



[Outro]
G|---------------|
D|---------------|
A|-----------2---| X2
E|--2--5--0------|



[Verse 3]
G|---------------------------------------------------------------------------|
D|---------------------------------------------------------------------------|
A|-----------------------------------------------------2-2-2-2-2-2-2-2-------| X4
E|--2-2-2-2-2-2-2-2--5-5-5-5-5-5-5-5--0-0-0-0-0-0-0-0------------------------|

G|--------------------------|
D|--------------------------|
A|--9--12--11----7--12--14--|X2
E|--------------------------|


************************************

| x   Dead note
| g   Grace note
| (n) Ghost note
| h   Hammer-on
| p   Pull-off
| r   Release
| >   Accented note
| t   Tapping
| b   Bend
| br  Bend release
| pb  Pre-bend
| pbr Pre-bend release
| /   Slide up
| \   Slide down
| ~   Vibrato
| s   Slap
| P   Pop
| PM  Palm mute
| TR  Trill
| N   Tremolo

************************************
Suggest correction
Give kudos to tab author, rate the tab!
1 2 3 4 5
comments
print report bad tab
guest
You may want to rate the tab now too:
select rating
Wanna post a correction for this tab? Suggest correction