Oops, an error
Loading. Please wait.

The Fall And The Rise Tab

version 1
version 1

Whole song

  • The tab explains how to play the song in detail. T... Show more
583 views 27 this week
1 commentread comment
1 2 3 4 5
x 3
add to favorites
launch autoscroll
font size
0
reset
how to read this tab
guitar tuner
Autoscroll
slow
fast
+/-
esc
set tempo
stop
Help us to improve Ultimate-Guitar.com Take our survey!
×
[Intro]
e|-14p0-9p0-10p0-9p0--14p0-9p0-10p0-9p0--14p0-9p0-10p0-9p0--14p0-9p0-10p0-9p0-12p0-10p0-9p0-10p0---|
B|-------------------------------------------------------------------------------------------------|
G|-------------------------------------------------------------------------------------------------|
D|-------------------------------------------------------------------------------------------------|
A|-------------------------------------------------------------------------------------------------|
E|-------------------------------------------------------------------------------------------------|

[Verse]
lead plays background
e|---------------------------------------------------------------------------|
B|---------------------------------------------------------------------------|
G|---------7~-----4~-----------------------7~--------4~----------------------|
D|-4~------7~-----4~-----4~-------4~-------7~--------4~----------------------|
A|-4~------5~-----2~-----4~-------4~-------5~--------2~----------------------|
E|-2~--------------------2~-------2~-----------------------------------------|

[Chorus]
e|---------------------------------------------------------------------------|
B|---------------------------------------------------------------------------|
G|------------------------------4-4-4-4--------------------------------------|
D|-4-4-4-4--7-7-7-7--2-2-2-2----4-4-4-4--------------------------------------| TWICE
A|-4-4-4-4--7-7-7-7--2-2-2-2----2-2-2-2--------------------------------------|
E|-2-2-2-2--5-5-5-5--0-0-0-0-------------------------------------------------|

[Post chorus Riff]
e|---------------------------------------------------------------------------|
B|---------------------------------------------------------------------------|
G|-11-11-11-14-14-14--13-13--9-9-9-9--16-16-14-14----------------------------|
D|-x-x-x-x--x--x--x---x--x---x-x-x-x---x--x-x--x-----------------------------|
A|-9-9-9-9--12-12-12--11-11--7-7-7-7--14-14-12-12----------------------------|
E|---------------------------------------------------------------------------|

[Bridge]
Piano: F#m A Em Bm

************************************

| x   Dead note
| g   Grace note
| (n) Ghost note
| h   Hammer-on
| p   Pull-off
| r   Release
| >   Accented note
| t   Tapping
| b   Bend
| br  Bend release
| pb  Pre-bend
| pbr Pre-bend release
| /   Slide up
| \   Slide down
| ~   Vibrato
| s   Slap
| P   Pop
| PM  Palm mute
| TR  Trill
| N   Tremolo

************************************
Suggest correction
Give kudos to tab author, rate the tab!
1 2 3 4 5
comments
print report bad tab
1 comment total.
0 reply
Living Dead 31 875 Oct 08, 2016 01:51 PM

Nice tab :) Keep up the good work!

guest
You may want to rate the tab now too:
select rating
Wanna post a correction for this tab? Suggest correction