Oops, an error
Loading. Please wait.

The Fall And The Rise Tab

version 2
version 2

Whole song

  • The tab explains how to play the song in detail. T... Show more
271 views 18 this week
no commentswrite comment
1 2 3 4 5
2 more votes to show rating
add to favorites
launch autoscroll
font size
0
reset
how to read this tab
guitar tuner
Autoscroll
slow
fast
+/-
esc
set tempo
stop
Help us to improve Ultimate-Guitar.com Take our survey!
×
Author
Difficulty
Tuning
intermediate
D A D G B E
About this tab version
The tab explains how to play the song in detail. The different rhythm guitars and the tuning in order to play the song like the version on the album. Was this info helpful? Yes No
Probably one of my favorite songs on the new Sum 41 album. It might take a bit to learn the opening riff but 
it doesnt take that long. I'm open to improvements and enjoy!

Tabbed by:senorheisenberg
Track:The Fall and The Rise
Artist:Sum 41
Album:13 Voices 
Year:2016
Tuning:Drop D
[Intro:]
e|-14-14-------------------14-14-------------------------------------------------------------------|
B|-------14-14-15-15-14-14-------14-14-15-15-14-14-17-17-14-14-15-15-14-14-17-17-14-14-15-15-17-17-|
G|-------------------------------------------------------------------------------------------------|
D|-------------------------------------------------------------------------------------------------|
A|-------------------------------------------------------------------------------------------------|
D|-------------------------------------------------------------------------------------------------|

[Verse:]
Guitar 1:
e|-14-14-------------------14-14-------------------------------------------------------------------|
B|-------14-14-15-15-14-14-------14-14-15-15-14-14-17-17-14-14-15-15-14-14-17-17-14-14-15-15-17-17-|
G|-------------------------------------------------------------------------------------------------|
D|-------------------------------------------------------------------------------------------------|
A|-------------------------------------------------------------------------------------------------|
D|-------------------------------------------------------------------------------------------------|

Guitar 2:
e|-------------------------------|
B|-------------------------------|
G|---------4---------4-4---------|
D|-4----0--4---0--2--4-4-0-0-2-2-|
A|-4----0--2---0--2--2-2-0-0-2-2-|
D|-4----0------0--2------0-0-2-2-|

"Hanging by by a thread now..."

[Chorus:]
e|-------------------------------------------------------------------|
B|-------------------------------------------------------------------|
G|-----------------2-2-2-2-2-2-2-2-2-----------------4-4-4-4-4-4-4-4-|
D|-4-4-4-4-4-4-4-4-2-2-2-2-2-2-2-2-2-2-2-2-2-2-2-2-2-4-4-4-4-4-4-4-4-|
A|-4-4-4-4-4-4-4-4-0-0-0-0-0-0-0-0-0-2-2-2-2-2-2-2-2-2-2-2-2-2-2-2-2-|
D|-4-4-4-4-4-4-4-4-------------------2-2-2-2-2-2-2-2-----------------|

"Go ahead then..."

[Interlude:]
e|---------------------------------------------------|
B|---------------------------------------------------|
G|-11-11-11-11-14-14-14-14-13-13-9-9-9-9-16-16-14-14-|
D|-x--x--x--x--x--x--x--x--x--x--x-x-x-x-x--x--x--x--|
A|-9--9--9--9--12-12-12-12-11-11-7-7-7-7-14-14-12-12-|
D|---------------------------------------------------|

************************************

| x   Dead note

************************************
Suggest correction
Give kudos to tab author, rate the tab!
1 2 3 4 5
comments
print report bad tab
guest
You may want to rate the tab now too:
select rating
Wanna post a correction for this tab? Suggest correction