Oops, an error
Loading. Please wait.

There Will Be Blood Tab

version 2
version 2

Whole song

  • The tab explains how to play the song in detail. T... Show more
265 views 12 this week
1 commentread comment
1 2 3 4 5
3 more votes to show rating
add to favorites
launch autoscroll
font size
0
reset
how to read this tab
guitar tuner
Autoscroll
slow
fast
+/-
esc
set tempo
stop
Help us to improve Ultimate-Guitar.com Take our survey!
×
Author
Difficulty
Tuning
advanced
E A D G B E
About this tab version
The tab explains how to play the song in detail. The different rhythm guitars and the tuning in order to play the song like the version on the album. Was this info helpful? Yes No
Thus song is a bit more difficult due to the swing rhythm going on. And plus the Brownsound solo. That part
may not be accurate so have at it. I'm always open to improvements and enjoy! 
Tabbed:senorheisenberg
Track:There Will Be Blood
Artist:Sum 41
Album:13 Voices
Year:2016
Tuning:Standard
[Intro:]
e|-------------------------|
B|-------------------------|
G|-------------------------|
D|-2-2-2-2-2-2-2-2-2-2-2-2-|
A|-2-2-2-2-2-2-2-2-2-2-2-2-|
E|-0-0-0-0-0-0-0-0-0-0-0-0-|
   ...............

[Chorus:]
e|---------------------------------|
B|---------------------------------|
G|-----------------5-5-5-5-5-5-5-5-|
D|-2-2-2-2-2-2-2-2-5-5-5-5-5-5-5-5-|
A|-2-2-2-2-2-2-2-2-3-3-3-3-3-3-3-3-|
E|-0-0-0-0-0-0-0-0-----------------|

"Little ones..."

e|-----------------------------------------|
B|-----------------------------------------|
G|-----------------5-5-5-5-5-5-5-5-7-7-7-7-|
D|-2-2-2-2-2-2-2-2-5-5-5-5-5-5-5-5-7-7-7-7-|
A|-2-2-2-2-2-2-2-2-3-3-3-3-3-3-3-3-5-5-5-5-|
E|-0-0-0-0-0-0-0-0-------------------------|

"That might mean you..."

[Verse 1:]
e|-----------------------------------------------------------------|
B|-----------------------------------------------------------------|
G|---------------------------------5-5-5-5-5-5-5-5-2-2-2-2-2-2-2-2-|
D|-2-2-2-2-2-2-2-2-5-5-5-5-5-5-5-5-5-5-5-5-5-5-5-5-2-2-2-2-2-2-2-2-|
A|-2-2-2-2-2-2-2-2-5-5-5-5-5-5-5-5-3-3-3-3-3-3-3-3-0-0-0-0-0-0-0-0-|
E|-0-0-0-0-0-0-0-0-3-3-3-3-3-3-3-3---------------------------------|
   ...............................................................

"Confess your sins of sorrow..."

[Verse 2:]
e|---------------------------------------------------|
B|---------------------------------------------------|
G|---------------------------------------------------|
D|-2-2-2-2-2-2-2-2-2-2-2-2-2-5-5-5-5-5-5-4-4-4-4-4-4-|
A|-2-2-2-2-2-2-2-2-2-2-2-2-2-5-5-5-5-5-5-4-4-4-4-4-4-|
E|-0-0-0-0-0-0-0-0-0-0-0-0-0-3-3-3-3-3-3-2-2-2-2-2-2-|
   ...   ...   ...   ...     ...   ...   ...   ...

"We're gonna burn..."

[Bridge 1:]
e|-----------|
B|-----------|
G|-----------|
D|-----------|
A|-----------|
E|-0---3-2---|

[Bridge 2:]
e|-------------------------------------|
B|-------------------------------------|
G|-------------------------------------|
D|-2-2-2-2-2-2-2-2---2-2-2-2---2-2-2-2-|
A|-2-2-2-2-2-2-2-2---2-2-2-2---2-2-2-2-|
E|-0-0-0-0-0-0-0-0---0-0-0-0---0-0-0-0-|
   ...............   .......   .......

e|-----------------------7-------------------------------5--------------|
B|-8-7-5-----------8-7-5---7-8----8-7-5------------5-7-8---8-7-8-7-5-7b-|
G|-------4-7-4-(x3)---------------------4-7-4-(x2)----------------------| (x2)
D|----------------------------------------------------------------------|
A|----------------------------------------------------------------------|
E|----------------------------------------------------------------------|


************************************

| x   Dead note
| g   Grace note
| (n) Ghost note
| h   Hammer-on
| p   Pull-off
| r   Release
| >   Accented note
| t   Tapping
| b   Bend
| br  Bend release
| pb  Pre-bend
| pbr Pre-bend release
| /   Slide up
| \   Slide down
| ~   Vibrato
| s   Slap
| P   Pop
| PM  Palm mute
| TR  Trill
| N   Tremolo

************************************

Suggest correction
Give kudos to tab author, rate the tab!
1 2 3 4 5
comments
print report bad tab
1 comment total.
0 reply
kmarci41 12 Oct 20, 2016 04:30 PM

e|-----------------------7-------------------------------7--------------|
B|-8-7-5-----------8-7-5---7-8----8-7-5------------5-7-8---8-7-8-7-5-7b-|
G|-------4-7-4-(x3)---------------------4-7-4-(x2)----------------------|x2
D|----------------------------------------------------------------------|
A|----------------------------------------------------------------------|
E|----------------------------------------------------------------------|
I think this is the solo, but good tab overall.

guest
You may want to rate the tab now too:
select rating
Wanna post a correction for this tab? Suggest correction