Oops, an error
Loading. Please wait.

Theres No Solution bass

version 2
version 2

Whole song

Interactive

by Sum 41
2,948 views 1 this week
1 commentread comment
1 2 3 4 5
x 7
add to favorites
×
Save as Personal and add changes to this tab that will be seen only by you. Learn more ›
×
You can save this tab as Personal to edit and correct it or add notes. All changes will be seen only by you. Learn more »
launch autoscroll
font size
0
reset
guitar tuner
edit
Autoscroll
slow
fast
+/-
esc
set tempo
stop
Artist: Sum 41
Song: There's No Solution
Album: Chuck (2005)
tabbed by: necriononguitar
e-mail (NO SPAM!): tim.rathgen@gmx.de

REAL FANS SUPPORT BANDS BY PURCHASING THEIR CD'S!!!


. = Palm-Muted
~ = hold note
^ = vibrate
p = pull off
h = hammer on
/ = slide up
\ = slide down


Tuning: Drop D (!!!)

"""Intro"""   0:04
G---------------------------------------------|
D--------------8-9----8--6---4--3-------------|
A--2---4---6--------9-------------------------|
D---------------------------------------------|


"""Verse"""  0:18
G-----------------------------------------------------------------------|
D-----------------------------------------------------------------------|
A---------------------2-2-2-2-2-2-2-2------------------4-4-4-4-4-4-4-6--|
D--1-1-1-1-1-1-1-1-1------------------4-4-4-4-4-4-4-4-------------------|


"""Pre-Chorus"""  0:36
G-----------------------------------------------------------------------|
D-----------------------------------------------------------------------|
A--2-2-2-2-2-2-2-2--4-4-4-4-4-4-4-4--------------------------1-1-4-4----|
D------------------------------------1-1-1-1-1-1-1-1-1-1-1-1------------|

G-----------------------------------------------------------------------|
D-----------------------------------------------------------------------|
A--2-2-2-2-2-2-2-2--4-4-4-4-4-4-4-4--6-6-6-6-6-6-6-6--------------------|
D------------------------------------------------------1-1-1-1-1--------|


"""Chorus"""  0:54
G--------------------------------------------------------------------------|
D--------------------------------------------------------------------------|
A-------------------------------------4--4--4-4-4-4-4---2--2--2-2--1-------|
D--1--1--1-1-1-1-1---4--4--4-4-4-4-3-----------------------------------4-3-|

G--------------------------------------------------------------------------|
D--------------------------------------------------------------------------|
A-------------------------------------4--4--4-4-4-4-4---1--1--4-4-4-4-4----|
D--1--1--1-1-1-1-1---4--4--4-4-4-4-3---------------------------------------|


"""Interlude 1"""  1:12
G---------------------------------------------|
D---------------------------------------------|
A--6-------2-------/9-------4----x-x----------|
D---------------------------------------------|


"""Repeat Verse"""  1:21


"""Repeat Pre-Chorus"""  1:39


"""Repeat Chorus"""  1:56


"Interlude 2"""  2:14
G--------------------------------------------------------|
D--------------------------------------------------------|
A--2-2-2-2-2-2-2-2--4-4-4-4-4-4-4-4----------------------|
D------------------------------------1--1-3--3-4--4-6-6--|

G--------------------------------------------------------------------------|
D--------------------------------------------------------------------------|
A--2-2-2-2-2-2-2-2--4-4-4-4-4-4-4-4--1-1-1-1-1-1-1-1--4-4-4-4--/16---------|
D--------------------------------------------------------------------------|


"""Repeat Chorus"""  2:32


"""Special Chorus / Outro Thingy"""  2:51
G-------------------------------------------------------------------------|
D-------------------------------------------------------------------------|
A--6-6-6-6-6-6-6-6--2-2-2-2-2-2-2-2------------------4-4-4-4-4-4-4-4------|
D------------------------------------4-4-4-4-4-4-4-4----------------------|

G-------------------------------------------------------------------------|
D-------------------------------------------------------------------------|
A--6-6-6-6-6-6-6-6--9-9-9-9-9-9-9-9------------------4-4-4-4-4-4-4-4------|
D------------------------------------4-4-4-4-4-4-4-4----------------------|

And thats it!  I Hope this helped, please rate, comment and correct me!

Cheers...
Suggest correction
Creating personal tab
Creating personal tab
You can edit any tab online and save it as your Personal.

You can edit, replace or remove any tab part or add personal notes – all changes will be seen only by you.

Personal tabs can be accessed anytime from any device, even offline.
Learn more »
comments
print report bad tab
1 comment total.
0 reply
RocknRollKing 10 May 25, 2010 07:59 AM

great tab, thanks!

guest
You may want to rate the tab now too:
select rating
Wanna post a correction for this tab? Suggest correction