Oops, an error
Loading. Please wait.

This Is Goodbye bass

by Sum 41
1,715 views 1 this week
3 commentsread comments
1 2 3 4 5
2 more votes to show rating
add to favorites
×
Save as Personal and add changes to this tab that will be seen only by you. Learn more ›
×
You can save this tab as Personal to edit and correct it or add notes. All changes will be seen only by you. Learn more »
launch autoscroll
font size
0
reset
guitar tuner
edit
Autoscroll
slow
fast
+/-
esc
set tempo
stop
Difficulty
Tabbed By : Ketan Jha
e-mail: ketan.jha (at)gmail(dot)com
I figured the song out on guitar a long time ago, but someone already posted a near 
tab
so I figured out the bass part. This is my first tab. I did everything I could to make 
as easy as possible
for beginner bassists, it's a great first song to learn.
Tuning: Standard Tuning


Intro
G|---------------------------------------------------------------------------|
D|---------------------------------------------------------------------------|
A|----444---0-0-0-0-------2-2-2-2--444--0-0-0-0----------2222----------------|
E|-------------------000--------------------------0000-----------------------|
  Watch the rhythm on the last two notes here.

Verse
G|---------------------------------------------------------------------------|
D|---------------------------------------------------------------------------|
A|-444-444-444-444--000-000-000-000-------------------222-222-222-222--------|
E|-----------------------------------000-000-000-000-------------------------|
  If you're confused, just play these notes along with the drums.

Pre-Chorus
G|------------------|
D|------------------|
A|-4~--0~----2~-----|
E|--------0~--------|

Chorus
G|---------------------------------------------------------------------------|
D|---------------------------------------------------------------------------|
A|-777-777-777-777--222-222-222-222--444-444-444-444--000-000--222-222-------|
E|---------------------------------------------------------------------------|

Verse
G|---------------------------------------------------------------------------|
D|---------------------------------------------------------------------------|
A|-444-444-444-444--000-000-000-000-------------------222-222-222-222--------|
E|-----------------------------------000-000-000-000-------------------------|

Pre-Chorus
G|------------------|
D|------------------|
A|-4~--0~----2~-----|
E|--------0~--------|

Chorus
G|---------------------------------------------------------------------------|
D|---------------------------------------------------------------------------|
A|-777-777-777-777--222-222-222-222--444-444-444-444--000-000--222-222-------|
E|---------------------------------------------------------------------------|
Lead in to bridge
G|-----------|
D|-----------|
A|-----------|
E|-0-0-0-----|

*No bass in the bridge itself*

Chorus x2
G|---------------------------------------------------------------------------|
D|---------------------------------------------------------------------------|
A|-777-777-777-777--222-222-222-222--444-444-444-444--000-000--222-222-------|
E|---------------------------------------------------------------------------|

Cadence
G|-----------|
D|-----------|
A|-----------|
E|-0-0-0-----|


| /  slide up
| \  slide down
| h  hammer-on
| p  pull-off
| ~  vibrato
| +  harmonic
| x  Mute note
===============================================================================

            
            
Suggest correction
Creating personal tab
Creating personal tab
You can edit any tab online and save it as your Personal.

You can edit, replace or remove any tab part or add personal notes – all changes will be seen only by you.

Personal tabs can be accessed anytime from any device, even offline.
Learn more »
Give kudos to tab author, rate the tab!
1 2 3 4 5
comments
print report bad tab
3 comments total.
0 reply
PandaSamurai 50 Aug 08, 2008 05:00 AM

Great tab!

+1 reply
necriononguitar 3,062 May 25, 2010 03:30 AM

sorry u failed, whole bridge is missing!

0 reply
BassDave03 10 Dec 12, 2010 03:25 PM

The doode's right for real

guest
Wanna post a correction for this tab? Suggest correction