Oops, an error
Loading. Please wait.

This Is Goodbye tab

by Sum 41
9,081 views 3 this week
2 commentsread comments
1 2 3 4 5
x 5
add to favorites
×
Save as Personal and add changes to this tab that will be seen only by you. Learn more ›
×
You can save this tab as Personal to edit and correct it or add notes. All changes will be seen only by you. Learn more »
launch autoscroll
font size
0
reset
how to read this tab
guitar tuner
edit
Autoscroll
slow
fast
+/-
esc
set tempo
stop
Standard Tuning
First tab for me

Intro:
|--------------------------------------------------------|
|--------------------------------------------------------|
|--666--2-2-2-2-------4-4-4-4--666--2-2-2-2-----4--------|2x
|--666--2-2-2-2--222--4-4-4-4--666--2-2-2-2--2--4--------|
|--444--0-0-0-0--222--2-2-2-2--444--0-0-0-0--2--2--------|
|----------------000-------------------------0-----------|

End on:
|-----|
|-----|
|--6--|
|--6--|
|--4--| let ring
|-----|

Verse:
Plays Bass until "Too late my friend it's over" then go.
|--------------------------------------------------------|
|--------------------------------------------------------|
|--------------------------------------------------------|
|--------------------------------------------------------|
|--11--7--2--9---11--7--2--------------------------------|
|--9---5--0--7---9---5--0--------------------------------|

Chorus:

|--------------------------------------------------------|
|--------------------------------------------------------|
|-9-(8x)--4-(8x)--6-(8x)--2-------4----------6-----------|
|-9-------4-------6-------2-------4----------6-----------|
|-7-------2-------4-------0 (4x)--2--(4x)----4-----------|
|--------------------------------------------------------|

Play Verse 1x
Chorus 1x

|-------|
|-------|
|-------|
|-2-2-2-|
|-2-2-2-|
|-0-0-0-|

Bridge:

|--------------------------------------------------------|
|-5-5-5----5-5-5----5-5-5-----7-7-7----------------------|
|--4-4-4-8--4-4-4-8--4-4-4-8---6-6-6-8-------------------|4x
|--------------------------------------------------------|
|--------------------------------------------------------|
|--------------------------------------------------------|


Chorus 2x

End on:

|-------|
|-------|
|-------|however many times needed
|-2-2-2-|
|-2-2-2-|
|-0-0-0-|

            
            
Suggest correction
Creating personal tab
Creating personal tab
You can edit any tab online and save it as your Personal.

You can edit, replace or remove any tab part or add personal notes – all changes will be seen only by you.

Personal tabs can be accessed anytime from any device, even offline.
Learn more »
comments
print report bad tab
2 comments total.
0 reply
Joron 10 Aug 22, 2007 05:21 AM

Sounds good, but I want to end the chorus with...

---------|
---------|
9--------|
9--------|
7--------|
---------|

...instead of...

---------|
---------|
6--------|
6--------|
4--------|
---------|

0 reply
Sid Vicouis 84 Aug 29, 2007 04:08 PM

excellent! great work

guest
You may want to rate the tab now too:
select rating
Wanna post a correction for this tab? Suggest correction