Oops, an error
Loading. Please wait.

Twisted By Design Tab

820 views 30 this week
1 commentread comment
1 2 3 4 5
x 5
add to favorites
launch autoscroll
font size
0
reset
how to read this tab
guitar tuner
Autoscroll
slow
fast
+/-
esc
set tempo
stop
Help us to improve Ultimate-Guitar.com Take our survey!
×
Author
Difficulty
novice
Artist: Sum 41
Album: 13 Voices
Title: Twisted By Design 
Tuning: Standard  EADGBe
Tabbed by: Bobby9685TheRevenge
Youtube Channel: https://www.youtube.com/user/Bobby94685TheRevenge

[Intro]


P.M. -------------------------------------------------------------------------------------------------------

e|---------------------------------------------------------------------------------------------------------|
B|---------------------------------------------------------------------------------------------------------|
G|---9-9-9-9-9-9-9-9-9-9-9-9-9-9-9-9--------------------12-12-12-12-12-12-12-12-12-12-12-12-12-12-12-12----|
D|---9-9-9-9-9-9-9-9-9-9-9-9-9-9-9-9--------------------12-12-12-12-12-12-12-12-12-12-12-12-12-12-12-12----|
A|---7-7-7-7-7-7-7-7-7-7-7-7-7-7-7-7--------------------10-10-10-10-10-10-10-10-10-10-10-10-10-10-10-10----|
E|---------------------------------------------------------------------------------------------------------|

P.M. -------------------------------------------------------------------------------------------------------

e|----------------------------------------------------------------------------------------------------------|
B|----------------------------------------------------------------------------------------------------------|
G|----------------------------------------------------------------------------------------------------------|
D|---12-12-12-12-12-12-12-12-12-12-12-12-12-12-12-12-----10-10-10-10-10-10-10-10-12-12-12-12-12-12-12-12----|
A|---12-12-12-12-12-12-12-12-12-12-12-12-12-12-12-12-----10-10-10-10-10-10-10-10-12-12-12-12-12-12-12-12----|
E|---10-10-10-10-10-10-10-10-10-10-10-10-10-10-10-10-----8--8--8--8--8--8--8--8--10-10-10-10-10-10-10-10----|

P.M. -------------------------------------------------------------------------------------------------------

e|--------------------------------------------------------------------------|
B|--------------------------------------------------------------------------|
G|---9-9-9-9-9-9-9-9-9-9-9-9-9-9-9-9----------------------------------------|
D|---9-9-9-9-9-9-9-9-9-9-9-9-9-9-9-9----------------------------------------|
A|---7-7-7-7-7-7-7-7-7-7-7-7-7-7-7-7----------------------------------------|
E|--------------------------------------------------------------------------|

P.M. -------------------------------------------------------------------------------------------------------

e|---------------------------------------------------------------------------------------------------------|
B|---------------------------------------------------------------------------------------------------------|
G|---9-9-9-9-9-9-9-9-9-9-9-9-9-9-9-9--------------------12-12-12-12-12-12-12-12-12-12-12-12-12-12-12-12----|
D|---9-9-9-9-9-9-9-9-9-9-9-9-9-9-9-9--------------------12-12-12-12-12-12-12-12-12-12-12-12-12-12-12-12----|
A|---7-7-7-7-7-7-7-7-7-7-7-7-7-7-7-7--------------------10-10-10-10-10-10-10-10-10-10-10-10-10-10-10-10----|
E|---------------------------------------------------------------------------------------------------------|

P.M. -------------------------------------------------------------------------------------------------------

e|----------------------------------------------------------------------------------------------------------|
B|----------------------------------------------------------------------------------------------------------|
G|----------------------------------------------------------------------------------------------------------|
D|---12-12-12-12-12-12-12-12-12-12-12-12-12-12-12-12-----10-10-10-10-10-10-10-10-12-12-12-12-12-12-12-12----|
A|---12-12-12-12-12-12-12-12-12-12-12-12-12-12-12-12-----10-10-10-10-10-10-10-10-12-12-12-12-12-12-12-12----|
E|---10-10-10-10-10-10-10-10-10-10-10-10-10-10-10-10-----8--8--8--8--8--8--8--8--10-10-10-10-10-10-10-10----|

P.M. -------------------------------------------------------------------------------------------------------

e|--------------------------------------------------------------------------|
B|--------------------------------------------------------------------------|
G|---9-9-9-9-9-9-9-9-9-9-9-9-9-9-9-9----------------------------------------|
D|---9-9-9-9-9-9-9-9-9-9-9-9-9-9-9-9----------------------------------------|
A|---7-7-7-7-7-7-7-7-7-7-7-7-7-7-7-7----------------------------------------|
E|--------------------------------------------------------------------------|

P.M. -------------------------------------------------------------------------------------------------------

e|---------------------------------------------------------------------------------------------------------|
B|---------------------------------------------------------------------------------------------------------|
G|---9-9-9-9-9-9-9-9-9-9-9-9-9-9-9-9--------------------12-12-12-12-12-12-12-12-12-12-12-12-12-12-12-12----|
D|---9-9-9-9-9-9-9-9-9-9-9-9-9-9-9-9--------------------12-12-12-12-12-12-12-12-12-12-12-12-12-12-12-12----|
A|---7-7-7-7-7-7-7-7-7-7-7-7-7-7-7-7--------------------10-10-10-10-10-10-10-10-10-10-10-10-10-10-10-10----|
E|---------------------------------------------------------------------------------------------------------|

P.M. -------------------------------------------------------------------------------------------------------

e|----------------------------------------------------------------------------------------------------------|
B|----------------------------------------------------------------------------------------------------------|
G|----------------------------------------------------------------------------------------------------------|
D|---12-12-12-12-12-12-12-12-12-12-12-12-12-12-12-12-----10-10-10-10-10-10-10-10-12-12-12-12-12-12-12-12----|
A|---12-12-12-12-12-12-12-12-12-12-12-12-12-12-12-12-----10-10-10-10-10-10-10-10-12-12-12-12-12-12-12-12----|
E|---10-10-10-10-10-10-10-10-10-10-10-10-10-10-10-10-----8--8--8--8--8--8--8--8--10-10-10-10-10-10-10-10----|

P.M. -------------------------------------------------------------------------------------------------------

e|--------------------------------------------------------------------------|
B|--------------------------------------------------------------------------|
G|---9-9-9-9-9-9-9-9-9-9-9-9-9-9-9-9----------------------------------------|
D|---9-9-9-9-9-9-9-9-9-9-9-9-9-9-9-9----------------------------------------|
A|---7-7-7-7-7-7-7-7-7-7-7-7-7-7-7-7----------------------------------------|
E|--------------------------------------------------------------------------|

[Rhythm Guitar] 
distortion  strumming pattern as you feel best
e|---------------------------------------------------------------------------------|
B|---------------------------------------------------------------------------------|
G|----------------------7-7-7-7------------------------------7-7-7-7---------------|
D|----2-2-2-2--5-5-5-5--7-7-7-7--7-7-7-7---2-2-2-2--5-5-5-5--7-7-7-7--7-7-7-7------|
A|----2-2-2-2--5-5-5-5--5-5-5-5--7-7-7-7---2-2-2-2--5-5-5-5--5-5-5-5--7-7-7-7------|
E|----0-0-0-0--3-3-3-3-----------5-5-5-5---0-0-0-0--3-3-3-3-----------5-5-5-5------|

e|---------------------------------------------------------------------------------|
B|---------------------------------------------------------------------------------|
G|----------------------7-7-7-7------------------------------7-7-7-7---------------|
D|----2-2-2-2--5-5-5-5--7-7-7-7--7-7-7-7---2-2-2-2--5-5-5-5--7-7-7-7--7-7-7-7------|
A|----2-2-2-2--5-5-5-5--5-5-5-5--7-7-7-7---2-2-2-2--5-5-5-5--5-5-5-5--7-7-7-7------|
E|----0-0-0-0--3-3-3-3-----------5-5-5-5---0-0-0-0--3-3-3-3-----------5-5-5-5------|

[Lead Guitar]

e|---------------------------------------------------------------------------|
B|---------------------------------------------------------------------------|
G|-9--9--11-12--14--11-11--12--14--9---9--9--11-12--14--11-11--12--14--9-----|
D|-x--x--x--x---x---x--x---x---x---x---x--x--x--x---x---x--x---x---x---x-----|
A|-7--7--9--10--12--9--9---10--12--7---7--7--9--10--12--9--9---10--12--7-----|
E|---------------------------------------------------------------------------|


e|---------------------------------------------------------------------------|
B|---------------------------------------------------------------------------|
G|-9--9--11-12--14--11-11--12--14--9---9--9--11-12--14--11-11--12--14--9-----|
D|-x--x--x--x---x---x--x---x---x---x---x--x--x--x---x---x--x---x---x---x-----|
A|-7--7--9--10--12--9--9---10--12--7---7--7--9--10--12--9--9---10--12--7-----|
E|---------------------------------------------------------------------------|


[Verse 1]
clean    or if you prefer you can play this chords as a half-palm mute (8 times for chord)
e|-----------------------------------------------------------------------------------------------------------|
B|-----------------------------------------------------------------------------------------------------------|
G|----------------7-----5--------------------7-----6--------------------7-----6--------------------7-----6---|
D|----2-----5-----7-----7--------2-----5-----7-----7--------2-----5-----7-----7--------2-----5-----7-----7---|
A|----2-----5-----5-----7--------2-----5-----5-----7--------2-----5-----5-----7--------2-----5-----5-----7---|
E|----0-----3-----------5--------0-----3-----------5--------0-----3-----------5--------0-----3-----------5---|

[Pre-Chorus 1]

e|------------------------------------------|
B|------------------------------------------|
G|----5-5-5-5-5-5-5-5---7-7-7-7-7-7-7-7-----|
D|----5-5-5-5-5-5-5-5---7-7-7-7-7-7-7-7-----|
A|----3-3-3-3-3-3-3-3---5-5-5-5-5-5-5-5-----|
E|------------------------------------------|

[Chorus 1]       
           chorus strumming pattern as you prefer, you can figure it out by listening to the song
e|---------------------------------------------------------------------------------|
B|---------------------------------------------------------------------------------|
G|----------------------7-7-7-7------------------------------7-7-7-7---------------|
D|----2-2-2-2--5-5-5-5--7-7-7-7--7-7-7-7---2-2-2-2--5-5-5-5--7-7-7-7--7-7-7-7------|
A|----2-2-2-2--5-5-5-5--5-5-5-5--7-7-7-7---2-2-2-2--5-5-5-5--5-5-5-5--7-7-7-7------|
E|----0-0-0-0--3-3-3-3-----------5-5-5-5---0-0-0-0--3-3-3-3-----------5-5-5-5------|

e|---------------------------------------------------------------------------------|
B|---------------------------------------------------------------------------------|
G|----------------------7-7-7-7------------------------------7-7-7-7---------------|
D|----2-2-2-2--5-5-5-5--7-7-7-7--7-7-7-7---2-2-2-2--5-5-5-5--7-7-7-7--7-7-7-7------|
A|----2-2-2-2--5-5-5-5--5-5-5-5--7-7-7-7---2-2-2-2--5-5-5-5--5-5-5-5--7-7-7-7------|
E|----0-0-0-0--3-3-3-3-----------5-5-5-5---0-0-0-0--3-3-3-3-----------5-5-5-5------|

[Interlude]

[Rhythm Guitar] 
distortion
e|---------------------------------------------------------------------------------|
B|---------------------------------------------------------------------------------|
G|----------------------7-7-7-7------------------------------7-7-7-7---------------|
D|----2-2-2-2--5-5-5-5--7-7-7-7--7-7-7-7---2-2-2-2--5-5-5-5--7-7-7-7--7-7-7-7------|
A|----2-2-2-2--5-5-5-5--5-5-5-5--7-7-7-7---2-2-2-2--5-5-5-5--5-5-5-5--7-7-7-7------|
E|----0-0-0-0--3-3-3-3-----------5-5-5-5---0-0-0-0--3-3-3-3-----------5-5-5-5------|

[Lead Guitar]

e|---------------------------------------------------------------------------|
B|---------------------------------------------------------------------------|
G|-9--9--11-12--14--11-11--12--14--9---9--9--11-12--14--11-11--12--14--9-----|
D|-x--x--x--x---x---x--x---x---x---x---x--x--x--x---x---x--x---x---x---x-----|
A|-7--7--9--10--12--9--9---10--12--7---7--7--9--10--12--9--9---10--12--7-----|
E|---------------------------------------------------------------------------|


[Verse 2]
clean         or if you prefer you can play this chords as a half-palm mute (8 times for chord)
e|-----------------------------------------------------------------------------------------------------------|
B|-----------------------------------------------------------------------------------------------------------|
G|----------------7-----5--------------------7-----6--------------------7-----6--------------------7-----6---|
D|----2-----5-----7-----7--------2-----5-----7-----7--------2-----5-----7-----7--------2-----5-----7-----7---|
A|----2-----5-----5-----7--------2-----5-----5-----7--------2-----5-----5-----7--------2-----5-----5-----7---|
E|----0-----3-----------5--------0-----3-----------5--------0-----3-----------5--------0-----3-----------5---|

[Pre-Chorus 2]

e|------------------------------------------|
B|------------------------------------------|
G|----5-5-5-5-5-5-5-5---7-7-7-7-7-7-7-7-----|
D|----5-5-5-5-5-5-5-5---7-7-7-7-7-7-7-7-----|
A|----3-3-3-3-3-3-3-3---5-5-5-5-5-5-5-5-----|
E|------------------------------------------|

[Chorus 2]
           chorus strumming pattern as you prefer, you can figure it out by listening to the song
e|---------------------------------------------------------------------------------|
B|---------------------------------------------------------------------------------|
G|----------------------7-7-7-7------------------------------7-7-7-7---------------|
D|----2-2-2-2--5-5-5-5--7-7-7-7--7-7-7-7---2-2-2-2--5-5-5-5--7-7-7-7--7-7-7-7------|
A|----2-2-2-2--5-5-5-5--5-5-5-5--7-7-7-7---2-2-2-2--5-5-5-5--5-5-5-5--7-7-7-7------|
E|----0-0-0-0--3-3-3-3-----------5-5-5-5---0-0-0-0--3-3-3-3-----------5-5-5-5------|

e|---------------------------------------------------------------------------------|
B|---------------------------------------------------------------------------------|
G|----------------------7-7-7-7------------------------------7-7-7-7---------------|
D|----2-2-2-2--5-5-5-5--7-7-7-7--7-7-7-7---2-2-2-2--5-5-5-5--7-7-7-7--7-7-7-7------|
A|----2-2-2-2--5-5-5-5--5-5-5-5--7-7-7-7---2-2-2-2--5-5-5-5--5-5-5-5--7-7-7-7------|
E|----0-0-0-0--3-3-3-3-----------5-5-5-5---0-0-0-0--3-3-3-3-----------5-5-5-5------|

[Rhythm Guitar] 
distortion
e|------------------------------------------|
B|------------------------------------------|
G|----------------------7-7-7-7-------------|
D|----2-2-2-2--5-5-5-5--7-7-7-7--7-7-7-7----|
A|----2-2-2-2--5-5-5-5--5-5-5-5--7-7-7-7----|
E|----0-0-0-0--3-3-3-3-----------5-5-5-5----|

[Lead Guitar]

e|------------------------------------------|
B|------------------------------------------|
G|-9--9--11-12--14--11-11--12--14--9--------|
D|-x--x--x--x---x---x--x---x---x---x--------|
A|-7--7--9--10--12--9--9---10--12--7--------|
E|------------------------------------------|


[Bridge]

e|--------------------------------------------------------------------------------------|
B|--------------------------------------------------------------------------------------|
G|----5-5-5-5-5-5-5-5-5-5-5-5-5-5-5-5-----7-7-7-7-7-7-7-7-7-7-7-7-7-7-7-7---------------|
D|----5-5-5-5-5-5-5-5-5-5-5-5-5-5-5-5-----7-7-7-7-7-7-7-7-7-7-7-7-7-7-7-7---------------|
A|----3-3-3-3-3-3-3-3-3-3-3-3-3-3-3-3-----5-5-5-5-5-5-5-5-5-5-5-5-5-5-5-5---------------|
E|--------------------------------------------------------------------------------------|

e|--------------------------------------------------------------------------------------|
B|--------------------------------------------------------------------------------------|
G|----5-5-5-5-5-5-5-5-5-5-5-5-5-5-5-5-----7-7-7-7-7-7-7-7-7-7-7-7-7-7-7-7---------------|
D|----5-5-5-5-5-5-5-5-5-5-5-5-5-5-5-5-----7-7-7-7-7-7-7-7-7-7-7-7-7-7-7-7---------------|
A|----3-3-3-3-3-3-3-3-3-3-3-3-3-3-3-3-----5-5-5-5-5-5-5-5-5-5-5-5-5-5-5-5---------------|
E|--------------------------------------------------------------------------------------|



[Chorus 3]
           chorus strumming pattern as you prefer, you can figure it out by listening to the song
e|---------------------------------------------------------------------------------|
B|---------------------------------------------------------------------------------|
G|----------------------7-7-7-7------------------------------7-7-7-7---------------|
D|----2-2-2-2--5-5-5-5--7-7-7-7--7-7-7-7---2-2-2-2--5-5-5-5--7-7-7-7--7-7-7-7------|
A|----2-2-2-2--5-5-5-5--5-5-5-5--7-7-7-7---2-2-2-2--5-5-5-5--5-5-5-5--7-7-7-7------|
E|----0-0-0-0--3-3-3-3-----------5-5-5-5---0-0-0-0--3-3-3-3-----------5-5-5-5------|

e|---------------------------------------------------------------------------------|
B|---------------------------------------------------------------------------------|
G|----------------------7-7-7-7------------------------------7-7-7-7---------------|
D|----2-2-2-2--5-5-5-5--7-7-7-7--7-7-7-7---2-2-2-2--5-5-5-5--7-7-7-7--7-7-7-7------|
A|----2-2-2-2--5-5-5-5--5-5-5-5--7-7-7-7---2-2-2-2--5-5-5-5--5-5-5-5--7-7-7-7------|
E|----0-0-0-0--3-3-3-3-----------5-5-5-5---0-0-0-0--3-3-3-3-----------5-5-5-5------|

[Outro - final]

e|--------------------------------------------------------------------------------------------------------|
B|--------------------------------------------------------------------------------------------------------|
G|----5-5-5-5----7-7-7-7------------------------------5-5-5-5----7-7-7-7----------------------------------|
D|----5-5-5-5----7-7-7-7----2-2-2-2----5-5-5-5--------5-5-5-5----7-7-7-7----2-2-2-2----5-5-5-5------------|
A|----3-5-5-5----5-7-7-7----2-2-2-2----5-5-5-5--------3-5-5-5----5-7-7-7----2-2-2-2----5-5-5-5------------|
E|--------------------------0-0-0-0----3-3-3-3------------------------------0-0-0-0----3-3-3-3------------|


e|----------------------------------------------------|
B|----------------------------------------------------|
G|----5-5-5-5----7-7-7-7------------------------------|
D|----5-5-5-5----7-7-7-7----2-2--2-2--2-2--2-2--\2----|
A|----3-5-5-5----5-7-7-7----2-2--2-2--2-2--2-2--\2----|
E|--------------------------0-0--0-0--0-0--0-0--\0----|

[Outro - ending melody - notes]

e|--------------------------------------------------|
B|----------7-/8-\7--------------7-/8-\7--\5--------|
G|---/9--\7-----------9----/9-\7--------------------|
D|--------------------------------------------------|
A|--------------------------------------------------|
E|--------------------------------------------------|



************************************

Effects Legend:

| x   Dead note
| g   Grace note
| (n) Ghost note
| h   Hammer-on
| p   Pull-off
| r   Release
| >   Accented note
| t   Tapping
| b   Bend
| br  Bend release
| pb  Pre-bend
| pbr Pre-bend release
| /   Slide up
| \   Slide down
| ~   Vibrato
| s   Slap
| P   Pop
| PM  Palm mute
| TR  Trill
| N   Tremolo

************************************


Suggest correction
comments
print report bad tab
1 comment total.
0 reply
char 900 50 Oct 23, 2016 08:47 PM

Excellent! One of my favorite songs from the album - this tab is near perfect!

guest
You may want to rate the tab now too:
select rating
Wanna post a correction for this tab? Suggest correction