Oops, an error
Loading. Please wait.

Twisted By Design tab

version 2
version 2

Whole song

by Sum 41
169 views 1 this week
no commentswrite comment
1 2 3 4 5
3 more votes to show rating
add to favorites
×
Save as Personal and add changes to this tab that will be seen only by you. Learn more ›
×
You can save this tab as Personal to edit and correct it or add notes. All changes will be seen only by you. Learn more »
launch autoscroll
font size
0
reset
how to read this tab
guitar tuner
edit
Autoscroll
slow
fast
+/-
esc
set tempo
stop
Author
Difficulty
[Intro]
(Clean Slight Phase Effect)
e|---------------------------------------------------------------------------|
B|---------------------------------------------------------------------------|
G|---------------------------------------------------------------------------|
D|---9--(x16)--12--(x16)--7--(x16)--5-(x8)--7--(x8)--9--(x16)----------------| (x4)
A|---7---------10---------5---------3-------5--------7-----------------------|
E|---------------------------------------------------------------------------|

[Break 1]

"What I say"

(Guitar 1)
e|---------------------------------------------------------------------------|
B|---------------------------------------------------------------------------|
G|-----9--11-12--14----11--11--11--11-------9-9-9-9--------------------------|
D|-----x--x---x--x------x--x---x---x--------x-x-x-x--------------------------| (x2)
A|-----7--9--10--12-----9--9---9---9--------7-7-7-7--------------------------|
E|---------------------------------------------------------------------------|

(Guitar 2)
e|---------------------------------------------------------------------------|
B|---------------------------------------------------------------------------|
G|------------------7-------2------------------------------------------------|
D|--2-------5-------7-(x8)--2--(x8)------------------------------------------| (x2)
A|--2-(x8)--5-(x8)--5-------0------------------------------------------------|
E|--0-------3----------------------------------------------------------------|

[Verse]

"'Cause if you get in time
What it feels inside
We live right on the line"

e|---------------------------------------------------------------------------|
B|---------------------------------------------------------------------------|
G|-9--------11-------12--------11-------12--------14--------11-------9-------|
D|-x--(x3)--x--(x3)---x--(x2)--x--(x2)---x--(x3)--x---(x2)--x--(x8)--x-(x8)--|
A|-7--------9--------10--------9--------10--------12--------9--------7-------|
E|---------------------------------------------------------------------------|

[Chorus]

"They say believing is the hardest part..."

e|---------------------------------------------------------------------------|
B|---------------------------------------------------------------------------|
G|------------------7-------2------------------------------------------------|
D|--2-------5-------7-(x8)--2--(x8)------------------------------------------| (x2)
A|--2-(x8)--5-(x8)--5-------0------------------------------------------------|
E|--0-------3----------------------------------------------------------------|

[Break]
(Guitar 1)
e|---------------------------------------------------------------------------|
B|---------------------------------------------------------------------------|
G|-----9--11-12--14----11--11--11--11-------9-9-9-9--------------------------|
D|-----x--x---x--x------x--x---x---x--------x-x-x-x--------------------------| (x2)
A|-----7--9--10--12-----9--9---9---9--------7-7-7-7--------------------------|
E|---------------------------------------------------------------------------|

(Guitar 2)
e|---------------------------------------------------------------------------|
B|---------------------------------------------------------------------------|
G|------------------7-------2------------------------------------------------|
D|--2-------5-------7-(x8)--2--(x8)------------------------------------------| (x2)
A|--2-(x8)--5-(x8)--5-------0------------------------------------------------|
E|--0-------3----------------------------------------------------------------|

[Verse 2]

"'Cause you forget in time
What it feels inside
We live right on the line"

e|---------------------------------------------------------------------------|
B|---------------------------------------------------------------------------|
G|-9--------11-------12--------11-------12--------14--------11-------9-------|
D|-x--(x3)--x--(x3)---x--(x2)--x--(x2)---x--(x3)--x---(x2)--x--(x8)--x-(x8)--|
A|-7--------9--------10--------9--------10--------12--------9--------7-------|
E|---------------------------------------------------------------------------|

[Chorus 2]

"They say Believing is the hardest part..."

e|---------------------------------------------------------------------------|
B|---------------------------------------------------------------------------|
G|------------------7-------2------------------------------------------------|
D|--2-------5-------7-(x8)--2--(x8)------------------------------------------| (x2)
A|--2-(x8)--5-(x8)--5-------0------------------------------------------------|
E|--0-------3----------------------------------------------------------------|

[Bridge]

"Starting over again, but the further I get
I can't stop these walls from closing in"

e|----------------------------------------------------------------------------------------|
B|----------------------------------------------------------------------------------------|
G|-9--------11--12------9--------11--12-------11-------12--14-------11--------12--14------|
D|-x--------x---x-------x--------x---x--------x---------x---x--------x---------x---x------|
A|-7--(x3)--9--10--(x4)-7--(x3)--9--10--(x4)--9--(x3)--10--12--(x4)--9--(x3)--10--12--(x4)|
E|----------------------------------------------------------------------------------------|

e|----------------------------------------------------------------------------------------|
B|----------------------------------------------------------------------------------------|
G|-9--------11--12------9--------11--12-------11-------12--14------7----------------------|
D|-x--------x---x-------x--------x---x--------x---------x---x-(x4)-x--(x8)----------------|
A|-7--(x3)--9--10--(x4)-7--(x3)--9--10--(x4)--9--(x3)--10--12------5----------------------|
E|----------------------------------------------------------------------------------------|

(Guitar 2)
e|---------------------------------------------------------------------------|
B|---------------------------------------------------------------------------|
G|---5-------7---------------------------------------------------------------|
D|---5-(x8)--7--(x8)---------------------------------------------------------| (x2)
A|---3-------5---------------------------------------------------------------|
E|---------------------------------------------------------------------------|

[Chorus 3]

"They say believing is the hardest part..."

e|---------------------------------------------------------------------------|
B|---------------------------------------------------------------------------|
G|------------------7-------2------------------------------------------------|
D|--2-------5-------7-(x8)--2--(x8)------------------------------------------| (x2)
A|--2-(x8)--5-(x8)--5-------0------------------------------------------------|
E|--0-------3----------------------------------------------------------------|

[Outro]

"In some ways I've changed
And I've left it all behind
But can't change, the way
I'm twisted by design"

(Guitar 1)
e|------------------------------------------------------------------------------------------------|
B|------------------------------------------------------------------------------------------------|
G|--9--------11-------12--------14---------9--------11-------12--------14--------9-------11-------|
D|--x--------x---------x---------x---------x--------x---------x---------x--------x--------x-------|
A|--7--(x8)--9--(x8)--10--(x8)--12--(x8)---7--(x8)--9--(x8)--10--(x8)--12--(x8)--7--(x8)--9--(x8)-|
E|------------------------------------------------------------------------------------------------|

e|---------------------------------------------------------------------------|
B|---------------------------------------------------------------------------|
G|---------------------------------------------------------------------------|
D|-9-9--9-9--9-9--9-9-----9--9--7--11-12--11-9--9--7--11-12--11--9~~~--------|
A|-7-7--7-7--7-7--7-7-----7--7--5--9--10--9--7--7--5--9--10--9---7~~~--------|
E|--------------------7\-----------------------------------------------------|

(Guitar 2)
e|-------------------------------------------------------------------------------------------|
B|-------------------------------------------------------------------------------------------|
G|--5--------7--------9--------4--------5--------7--------9--------4--------5--------7-------|
D|--5--------7--------9--------4--------5--------7--------9--------4--------5--------7-------|
A|--3--(x8)--5--(x8)--7--(x8)--2--(x8)--3--(x8)--5--(x8)--7--(x8)--2--(x8)--3--(x8)--5--(x8)-|
E|-------------------------------------------------------------------------------------------|

e|---------------------------------------------------------------------------|
B|---------------------------------------------------------------------------|
G|---------------------------------------------------------------------------|
D|------2-2---2-2---2-2---2-2---2~~~-----------------------------------------|
A|------2-2---2-2---2-2---2-2---2~~~-----------------------------------------|
E|-7\---0-0---0-0---0-0---0-0---0~~~-----------------------------------------|



************************************

| x  Dead note
| ~  Vibrato
| \  Slide down
| (x 
| )  

************************************

            
            
Suggest correction
Creating personal tab
Creating personal tab
You can edit any tab online and save it as your Personal.

You can edit, replace or remove any tab part or add personal notes – all changes will be seen only by you.

Personal tabs can be accessed anytime from any device, even offline.
Learn more »
Give kudos to tab author, rate the tab!
1 2 3 4 5
comments
print report bad tab
guest
You may want to rate the tab now too:
select rating
Wanna post a correction for this tab? Suggest correction