Oops, an error
Loading. Please wait.
We have an official Walking Disaster tab made by UG professional guitarists. Check out the tab »
×
by Sum 41
11,896 views 6 this week
no commentswrite comment
1 2 3 4 5
x 4
add to favorites
×
Save as Personal and add changes to this tab that will be seen only by you. Learn more ›
×
You can save this tab as Personal to edit and correct it or add notes. All changes will be seen only by you. Learn more »
launch autoscroll
font size
0
reset
guitar tuner
backing track
0:00
0:00
edit
Autoscroll
slow
fast
+/-
esc
set tempo
stop
Author
Difficulty
I love this song off their new album.
Check out the band
www.myspace.com/lastonestandingbaby
thanks [=


Bass comes in at 0:05

G|--------------------------|
D|--------------------------| x2
A|-2~-----------------------|
E|--------2~----4~----0~----|

0:28

G|-------------------------|
D|-------------------------|x2
A|-------------2~----------|
E|-4~----0~----------2~----|

No bass for "As I Fall..."

Bass comes in at 0:59

G|-------------------------------------|
D|-------------------------------------| Be played very quickly
A|-22222222----------------------------|
E|----------44444444-22222222-00000000-|

Lead guitar, then only lead and bass

G|-------------------------------------|
D|-------------------------------------|x4
A|-00000000----------------------------|
E|----------22222222-44444444-00000000-|

Pre-Chorus  (1:33)

G|--------------------|
D|--------------------|x3
A|----------2222------|
E|-00000000------2222-|

G|--------------------|
D|--------------------|x1
A|----------2222------|
E|-00000000------2xxx-|

Chorus

G|---------------------|
D|---------------------|x1
A|-2222----------------|
E|------2222-4444-0000-|

G|---------------------|
D|---------------------|x1
A|-2222----------------|
E|------2222-4444-0xxx-|

No Bass for backvoice, but just to be cool, with the rhythm guitar:

G|---------|
D|---------|x1
A|---------|
E|-x-x-x-x-|

G|--------------------|
D|--------------------|x1
A|----------2222------|
E|-00000000------2222-|

You can play this with the lead guitar, or play that tab again

G|--------------------------------------------------|
D|--------------------------------------------------|
A|-999-999-11\11\11-11\11\11-131313-131313-14141414-|
E|--------------------------------------------------|

Verse

G|-------------------------------------|
D|-------------------------------------|x2
A|-22222222----------------------------|
E|----------22222222-44444444-00000000-|

Pre-Chorus  (2:30)

G|--------------------|
D|--------------------|x3
A|----------2222------|
E|-00000000------2222-|

G|--------------------|
D|--------------------|x1
A|----------2222------|
E|-00000000------2xxx-|

Chorus

G|---------------------|
D|---------------------|x1
A|-2222----------------|
E|------2222-4444-0000-|

G|---------------------|
D|---------------------|x1
A|-2222----------------|
E|------2222-4444-0xxx-|

Bridge

G|--------------|
D|--------------|x8
A|-2~-----------|
E|----2~--0~----|

Bridge, part 2 (3:30)

G|------------------------|
D|------------------------|
A|-2222--4444--6666--7777-|
E|------------------------|

G|------------------------|
D|------------------------|
A|-2222--4444--6666--7xxx-|
E|------------------------|

Pre-Chorus  (3:38)

G|--------------------|
D|--------------------|x3
A|----------2222------|
E|-00000000------2222-|

G|--------------------|
D|--------------------|x1
A|----------2222------|
E|-00000000------2xxx-|

Chorus

G|---------------------|
D|---------------------|x1
A|-2222----------------|
E|------2222-4444-0000-|

G|---------------------|
D|---------------------|x1
A|-2222----------------|
E|------2222-4444-0xxx-|

G|--------------------|
D|--------------------|x3
A|----------2222------|
E|-00000000------2222-|

You can play this with the lead guitar, or play that tab again

G|--------------------------------------------------|
D|--------------------------------------------------|
A|-999-999-11\11\11-11\11\11-131313-131313-14141414-|
E|--------------------------------------------------|

Outro

G|-------------------------------------------------------------------|
D|-------------------------------------------------------------------|x2
A|-2-2-2-2-2-2-2-2---------------------------------------------------|
E|-----------------2-2-2-2-2-2-2-2-4-4-4-4-4-4-4-4-0-0-0-0-0-0-0-0-0-|


            
            
Suggest correction
Creating personal tab
Creating personal tab
You can edit any tab online and save it as your Personal.

You can edit, replace or remove any tab part or add personal notes – all changes will be seen only by you.

Personal tabs can be accessed anytime from any device, even offline.
Learn more »
comments
print report bad tab
guest
You may want to rate the tab now too:
select rating
Wanna post a correction for this tab? Suggest correction