Oops, an error
Loading. Please wait.

Walking Disaster Tab

version 2
version 2

Whole song

Interactive

Video

  • High quality video lesson, easy to follow and accurate.
by Sum 41
55,132 views 27 this week
17 commentsread comments
1 2 3 4 5
x 27
add to favorites
launch autoscroll
font size
0
reset
how to read this tab
guitar tuner
backing track
0:00
0:00
×
Best way to learn
"Walking Disaster"
Autoscroll
slow
fast
+/-
esc
set tempo
stop
Author
Sum 41 - Walking Disaster
Tabbed by: Mark O'Rourke
Email: m.f.orourke@hotmail.com
Tuning: Standard
Note  I updated this tab and corrected errors 7/10/07.
  
[Intro]
 Guitar 1 (Lead)
e|-------------------------------------------------11----|
B|-12-12-12-12-12-12-12-12-12-12-12-12-12-12-12-12----12-|
G|-x--x--x--x--x--x--x--x--x--x--x--x--x--x--x--x--------|
D|-9--9--9--9--9--9--9--9--9--9--9--9--9--9--9--9--------|
A|-------------------------------------------------------|
E|-------------------------------------------------------|

e|-------------------------11-----------------------------11----|
B|-12-12-12-12-12-12-12-12----12--12-12-12-12-12-12-12-12----12-|
G|-x--x--x--x--x--x--x--x---------x--x--x--x--x--x--x--x--------|
D|-9--9--9--9--9--9--9--9---------9--9--9--9--9--9--9--9--------| (1x)
A|--------------------------------------------------------------|
E|--------------------------------------------------------------|

[Verse]
 Guitar 1 (Lead)
e|-------------------------------------------------11----|
B|-12-12-12-12-12-12-12-12-12-12-12-12-12-12-12-12----12-|
G|-x--x--x--x--x--x--x--x--x--x--x--x--x--x--x--x--------|
D|-9--9--9--9--9--9--9--9--9--9--9--9--9--9--9--9--------|
A|-------------------------------------------------------|
E|-------------------------------------------------------|

e|-------------------------11-----------------------------11----|
B|-12-12-12-12-12-12-12-12----12--12-12-12-12-12-12-12-12----12-|
G|-x--x--x--x--x--x--x--x---------x--x--x--x--x--x--x--x--------|
D|-9--9--9--9--9--9--9--9---------9--9--9--9--9--9--9--9--------| (4x)
A|--------------------------------------------------------------|
E|--------------------------------------------------------------|

 Guitar 2 (Rythm)
e|--------------------------------------------------------------------|
B|--------------------------------------------------------------------|
G|-4-4-4-4-4-4-4-4----------------------------------------------------|
D|-4-4-4-4-4-4-4-4--4-4-4-4-4-4-4-4--6-6-6-6-6-6-6-6--2-2-2-2-2-2-2-2-| (2x)
A|-2-2-2-2-2-2-2-2--4-4-4-4-4-4-4-4--6-6-6-6-6-6-6-6--2-2-2-2-2-2-2-2-|
E|------------------2-2-2-2-2-2-2-2--4-4-4-4-4-4-4-4--0-0-0-0-0-0-0-0-|

e|--------------------------------------------------------------------|
B|--------------------------------------------------------------------|
G|-----------------------------------4-4-4-4-4-4-4-4------------------|
D|-6-6-6-6-6-6-6-6--2-2-2-2-2-2-2-2--4-4-4-4-4-4-4-4--4-4-4-4-4-4-4-4-| (2x)
A|-6-6-6-6-6-6-6-6--2-2-2-2-2-2-2-2--2-2-2-2-2-2-2-2--4-4-4-4-4-4-4-4-|
E|-4-4-4-4-4-4-4-4--0-0-0-0-0-0-0-0-------------------2-2-2-2-2-2-2-2-|

[Interlude]
 Guitar 2 (Rythm)
e|----------------------------------------------------|
B|----------------------------------------------------|
G|----------1h2p1h2p1h2p1h2p1h2p1h2-------------------|
D|-6~-4~-2~-------------------------------------------|
A|-6~-4~-2~-------------------------------------------|
E|-4~-2~-0~-------------------------------------------|

 Guitar 1 (lead)
e|---------7b*--------------------------------------------------------|
B|--------------------------------------------------------------------|
G|--------------------------------------------------------------------|
D|--------------------------------------------------------------------|
A|--------------------------------------------------------------------|
E|--------------------------------------------------------------------|

[Pre-Verse]
Guitar 1 (lead)
e|-------------------------------------------------------------------------|
B|-------------------------------------------------------------------------|
G|-4---/-11-\---8-\---4---/-11-\---8-\---4---/-11-\---8-\---4---/-11-\---8-|
D|-x--/--x---\--x--\--x--/--x---\--x--\--x--/--x---\--x--\--x--/--x---\--x-|
A|-2-/---9----\-6---\-2-/---9----\-6---\-2-/---9----\-6---\-2-/---9----\-6-|
E|-------------------------------------------------------------------------|

e|------------------------------------------------------|
B|------------------------------------------------------|
G|-11-11-11-11-11-11-11-11--13-13-13-13-13-13-13-13-----|
D|-x--x--x--x--x--x--x--x---x--x--x--x--x--x--x--x------|
A|-9--9--9--9--9--9--9--9---11-11-11-11-11-11-11-11-----|
E|------------------------------------------------------|

e|------------------------------------------------------|
B|------------------------------------------------------|
G|-15-15-15-15-15-15-15-15--16-16-16-16-16-16-16-16-\---|
D|-x--x--x--x--x--x--x--x---x--x--x--x--x--x--x--x---\--|
A|-13-13-13-13-13-13-13-13--14-14-14-14-14-14-14-14---\-|
E|------------------------------------------------------|

 Guitar 2 (rythm)
e|--------------------------------------------------------------------|
B|--------------------------------------------------------------------|
G|-4-4-4-4-4-4-4-4----------------------------------------------------|
D|-4-4-4-4-4-4-4-4--6-6-6-6-6-6-6-6--4-4-4-4-4-4-4-4--2-2-2-2-2-2-2-2-| (1x)
A|-2-2-2-2-2-2-2-2--6-6-6-6-6-6-6-6--4-4-4-4-4-4-4-4--2-2-2-2-2-2-2-2-|
E|------------------4-4-4-4-4-4-4-4--2-2-2-2-2-2-2-2--0-0-0-0-0-0-0-0-|

[Verse]
 Guitar 1 (lead)
e|---------------------------------|
B|---------------------------------|
G|-4-4-4-4-4-4-4-4-4-4-4-4-4-4-4-4-|
D|-x-x-x-x-x-x-x-x-x-x-x-x-x-x-x-x-| (6x)
A|-2-2-2-2-2-2-2-2-2-2-2-2-2-2-2-2-|
E|---------------------------------|

[Pre-Chorus]
 Guitar 2 (rythm)
e|-----------------------------------|
B|-----------------------------------|
G|------------------4-4-4-4----------|
D|-2-2-2-2-2-2-2-2--4-4-4-4--4-4-4-4-| (2x)
A|-2-2-2-2-2-2-2-2--2-2-2-2--4-4-4-4-|
E|-0-0-0-0-0-0-0-0-----------2-2-2-2-|

 Guitar 1 (lead)
e|---------------------------------|
B|---------------------------------|
G|-4---/-3-\---4-\---6---/-4---/-3-|
D|-x--/--x--\--x--\--x--/--x--/--x-| (1x)
A|-2-/---1---\-2---\-4-/---2-/---1-|
E|---------------------------------|

 Guitar 2 (rythm)
e|-----------------------------------|
B|-----------------------------------|
G|------------------4-4-4-4----------|
D|-2-2-2-2-2-2-2-2--4-4-4-4--4-4-4-4-| (1x)
A|-2-2-2-2-2-2-2-2--2-2-2-2--4-4-4-4-|
E|-0-0-0-0-0-0-0-0-----------2-2-2-2-|

e|-----------------------------|
B|-----------------------------|
G|------------------4-4-4-4----|
D|-2-2-2-2-2-2-2-2--4-4-4-4--4-| (1x)
A|-2-2-2-2-2-2-2-2--2-2-2-2--4-|
E|-0-0-0-0-0-0-0-0-----------2-|

[Chorus]
 Guitar 2 (rythm)
e|------------------------------------|
B|------------------------------------|
G|-4-4-4-4----------------------------|
D|-4-4-4-4--6-6-6-6--4-4-4-4--2-2-2-2-| (1x)
A|-2-2-2-2--6-6-6-6--4-4-4-4--2-2-2-2-|
E|----------4-4-4-4--2-2-2-2--0-0-0-0-|

e|------------------------------|
B|------------------------------|
G|-4-4-4-4----------------------|
D|-4-4-4-4--6-6-6-6--4-4-4-4--2-| (1x)
A|-2-2-2-2--6-6-6-6--4-4-4-4--2-|
E|----------4-4-4-4--2-2-2-2--0-|

[Interlude]
 Guitar 1 (lead)
e|-------------------------------------------------|
B|-------------------------------------------------|
G|-4-4-4-4-4-4-4-4-4-4-4-4-4-4-4-4-4-4-4-4-4-4-4-4-|
D|-x-x-x-x-x-x-x-x-x-x-x-x-x-x-x-x-x-x-x-x-x-x-x-x-| (1x)
A|-2-2-2-2-2-2-2-2-2-2-2-2-2-2-2-2-2-2-2-2-2-2-2-2-|
E|-------------------------------------------------|

[Pre-Verse]
 Guitar 1 (lead)
e|-------------------------------------------------------------------------|
B|-------------------------------------------------------------------------|
G|-4---/-11-\---8-\---4---/-11-\---8-\---4---/-11-\---8-\---4---/-11-\---8-|
D|-x--/--x---\--x--\--x--/--x---\--x--\--x--/--x---\--x--\--x--/--x---\--x-|
A|-2-/---9----\-6---\-2-/---9----\-6---\-2-/---9----\-6---\-2-/---9----\-6-|
E|-------------------------------------------------------------------------|

e|------------------------------------------------------|
B|------------------------------------------------------|
G|-11-11-11-11-11-11-11-11--13-13-13-13-13-13-13-13-----|
D|-x--x--x--x--x--x--x--x---x--x--x--x--x--x--x--x------|
A|-9--9--9--9--9--9--9--9---11-11-11-11-11-11-11-11-----|
E|------------------------------------------------------|

e|------------------------------------------------------|
B|------------------------------------------------------|
G|-15-15-15-15-15-15-15-15--16-16-16-16-16-16-16-16-\---|
D|-x--x--x--x--x--x--x--x---x--x--x--x--x--x--x--x---\--|
A|-13-13-13-13-13-13-13-13--14-14-14-14-14-14-14-14---\-|
E|------------------------------------------------------|

 Guitar 2 (rythm)
e|--------------------------------------------------------------------|
B|--------------------------------------------------------------------|
G|-4-4-4-4-4-4-4-4----------------------------------------------------|
D|-4-4-4-4-4-4-4-4--6-6-6-6-6-6-6-6--4-4-4-4-4-4-4-4--2-2-2-2-2-2-2-2-| (1x)
A|-2-2-2-2-2-2-2-2--6-6-6-6-6-6-6-6--4-4-4-4-4-4-4-4--2-2-2-2-2-2-2-2-|
E|------------------4-4-4-4-4-4-4-4--2-2-2-2-2-2-2-2--0-0-0-0-0-0-0-0-|

[Verse]
 Guitar 2 (rythm)
e|--------------------------------------------------------------------|
B|--------------------------------------------------------------------|
G|-4-4-4-4-4-4-4-4----------------------------------------------------|
D|-4-4-4-4-4-4-4-4--6-6-6-6-6-6-6-6--4-4-4-4-4-4-4-4--2-2-2-2-2-2-2-2-| (1x)
A|-2-2-2-2-2-2-2-2--6-6-6-6-6-6-6-6--4-4-4-4-4-4-4-4--2-2-2-2-2-2-2-2-|
E|------------------4-4-4-4-4-4-4-4--2-2-2-2-2-2-2-2--0-0-0-0-0-0-0-0-|
     . . . . . . .    . . . . . . .    . . . . . . .    . . .   .   .

e|--------------------------------------------------------------------|
B|--------------------------------------------------------------------|
G|-4-4-4-4-4-4-4-4----------------------------------------------------|
D|-4-4-4-4-4-4-4-4--6-6-6-6-6-6-6-6--4-4-4-4-4-4-4-4--2-2-2-2-2-2-2-2-| (1x)
A|-2-2-2-2-2-2-2-2--6-6-6-6-6-6-6-6--4-4-4-4-4-4-4-4--2-2-2-2-2-2-2-2-|
E|------------------4-4-4-4-4-4-4-4--2-2-2-2-2-2-2-2--0-0-0-0-0-0-0-0-|
     . . . . . . .    . . . . . . .    . . . . . . .    . . . . . . .

[Pre-Chorus]
 
 Guitar 2 (rythm)
e|-----------------------------------|
B|-----------------------------------|
G|------------------4-4-4-4----------|
D|-2-2-2-2-2-2-2-2--4-4-4-4--4-4-4-4-| (2x)
A|-2-2-2-2-2-2-2-2--2-2-2-2--4-4-4-4-|
E|-0-0-0-0-0-0-0-0-----------2-2-2-2-|

 Guitar 1 (lead)
e|---------------------------------|
B|---------------------------------|
G|-4---/-3-\---4-\---6---/-4---/-3-|
D|-x--/--x--\--x--\--x--/--x--/--x-| (1x)
A|-2-/---1---\-2---\-4-/---2-/---1-|
E|---------------------------------|

 Guitar 2 (rythm)
e|-----------------------------------|
B|-----------------------------------|
G|------------------4-4-4-4----------|
D|-2-2-2-2-2-2-2-2--4-4-4-4--4-4-4-4-| (1x)
A|-2-2-2-2-2-2-2-2--2-2-2-2--4-4-4-4-|
E|-0-0-0-0-0-0-0-0-----------2-2-2-2-|

e|-----------------------------|
B|-----------------------------|
G|------------------4-4-4-4----|
D|-2-2-2-2-2-2-2-2--4-4-4-4--4-| (1x)
A|-2-2-2-2-2-2-2-2--2-2-2-2--4-|
E|-0-0-0-0-0-0-0-0-----------2-|

[Chorus]
 Guitar 2 (rythm)
e|------------------------------------|
B|------------------------------------|
G|-4-4-4-4----------------------------|
D|-4-4-4-4--6-6-6-6--4-4-4-4--2-2-2-2-| (1x)
A|-2-2-2-2--6-6-6-6--4-4-4-4--2-2-2-2-|
E|----------4-4-4-4--2-2-2-2--0-0-0-0-|

e|------------------------------|
B|------------------------------|
G|-4-4-4-4----------------------|
D|-4-4-4-4--6-6-6-6--4-4-4-4--2-| (1x)
A|-2-2-2-2--6-6-6-6--4-4-4-4--2-|
E|----------4-4-4-4--2-2-2-2--0-|

[Bridge]
 Guitar 2 (rythm)
e|--------------------|
B|--------------------|
G|-----------4~-------|
D|-6~-4~-2~--4~-4~-2~-| (5x)
A|-6~-4~-2~--2~-4~-2~-|
E|-4~-2~-0~-----2~-0~-|

 Guitar 1 (lead)
e|---------------------------------------------|
B|---------------------------------------------|
G|-4-4-4-4---/-6-6-6-6---/-8-8-8-8---/-9-9-9-9-|
D|-x-x-x-x--/--x-x-x-x--/--x-x-x-x--/--x-x-x-x-| (1x)
A|-2-2-2-2-/---4-4-4-4-/---6-6-6-6-/---7-7-7-7-|
E|---------------------------------------------|

e|---------------------------------------|
B|---------------------------------------|
G|-4-4-4-4---/-6-6-6-6---/-8-8-8-8---/-9-|
D|-x-x-x-x--/--x-x-x-x--/--x-x-x-x--/--x-|
A|-2-2-2-2-/---4-4-4-4-/---6-6-6-6-/---7-|
E|---------------------------------------|

[Pre-Chorus]
 Guitar 2 (rythm)
e|-----------------------------------|
B|-----------------------------------|
G|------------------4-4-4-4----------|
D|-2-2-2-2-2-2-2-2--4-4-4-4--4-4-4-4-| (2x)
A|-2-2-2-2-2-2-2-2--2-2-2-2--4-4-4-4-|
E|-0-0-0-0-0-0-0-0-----------2-2-2-2-|

 Guitar 1 (lead)
e|---------------------------------|
B|---------------------------------|
G|-4---/-3-\---4-\---6---/-4---/-3-|
D|-x--/--x--\--x--\--x--/--x--/--x-| (1x)
A|-2-/---1---\-2---\-4-/---2-/---1-|
E|---------------------------------|

 Guitar 2 (rythm)
e|-----------------------------------|
B|-----------------------------------|
G|------------------4-4-4-4----------|
D|-2-2-2-2-2-2-2-2--4-4-4-4--4-4-4-4-| (1x)
A|-2-2-2-2-2-2-2-2--2-2-2-2--4-4-4-4-|
E|-0-0-0-0-0-0-0-0-----------2-2-2-2-|

e|-----------------------------|
B|-----------------------------|
G|------------------4-4-4-4----|
D|-2-2-2-2-2-2-2-2--4-4-4-4--4-| (1x)
A|-2-2-2-2-2-2-2-2--2-2-2-2--4-|
E|-0-0-0-0-0-0-0-0-----------2-|

[Chorus]
 Guitar 2 (rythm)
e|------------------------------------|
B|------------------------------------|
G|-4-4-4-4----------------------------|
D|-4-4-4-4--6-6-6-6--4-4-4-4--2-2-2-2-| (1x)
A|-2-2-2-2--6-6-6-6--4-4-4-4--2-2-2-2-|
E|----------4-4-4-4--2-2-2-2--0-0-0-0-|

e|------------------------------|
B|------------------------------|
G|-4-4-4-4----------------------|
D|-4-4-4-4--6-6-6-6--4-4-4-4--2-| (1x)
A|-2-2-2-2--6-6-6-6--4-4-4-4--2-|
E|----------4-4-4-4--2-2-2-2--0-|

[Interlude]
 Guitar 1
e|-------------------------------------------------------------------------|
B|-------------------------------------------------------------------------|
G|-4---/-11-\---8-\---4---/-11-\---8-\---4---/-11-\---8-\---4---/-11-\---8-|
D|-x--/--x---\--x--\--x--/--x---\--x--\--x--/--x---\--x--\--x--/--x---\--x-|
A|-2-/---9----\-6---\-2-/---9----\-6---\-2-/---9----\-6---\-2-/---9----\-6-|
E|-------------------------------------------------------------------------|

e|-------------------------------------------------------------------------|
B|-------------------------------------------------------------------------|
G|-4---/-11-\---8-\---4---/-11-\---8-\---4---/-6--\---8-\---4---/-8--\---8-|
D|-x--/--x---\--x--\--x--/--x---\--x--\--x--/--x---\--x--\--x--/--x---\--x-|
A|-2-/---9----\-6---\-2-/---9----\-6---\-2-/---4----\-6---\-2-/---4----\-6-|
E|-------------------------------------------------------------------------|

e|-------------------------------------------------------------------------|
B|-------------------------------------------------------------------------|
G|-4---/-11-\---8-\---4---/-11-\---8-\---4---/-11-\---8-\---4---/-11-\---8-|
D|-x--/--x---\--x--\--x--/--x---\--x--\--x--/--x---\--x--\--x--/--x---\--x-|
A|-2-/---9----\-6---\-2-/---9----\-6---\-2-/---9----\-6---\-2-/---9----\-6-|
E|-------------------------------------------------------------------------|

e|------------------------------------------------------|
B|------------------------------------------------------|
G|-11-11-11-11-11-11-11-11--13-13-13-13-13-13-13-13-----|
D|-x--x--x--x--x--x--x--x---x--x--x--x--x--x--x--x------|
A|-9--9--9--9--9--9--9--9---11-11-11-11-11-11-11-11-----|
E|------------------------------------------------------|

e|------------------------------------------------------|
B|------------------------------------------------------|
G|-15-15-15-15-15-15-15-15--16-16-16-16-16-16-16-16-\---|
D|-x--x--x--x--x--x--x--x---x--x--x--x--x--x--x--x---\--|
A|-13-13-13-13-13-13-13-13--14-14-14-14-14-14-14-14---\-|
E|------------------------------------------------------|

 Guitar 2 (rythm)
e|------------------------------------|
B|------------------------------------|
G|-4-4-4-4----------------------------|
D|-4-4-4-4--6-6-6-6--4-4-4-4--2-2-2-2-| (1x)
A|-2-2-2-2--6-6-6-6--4-4-4-4--2-2-2-2-|
E|----------4-4-4-4--2-2-2-2--0-0-0-0-|

e|------------------------------|
B|------------------------------|
G|-4-4-4-4----------------------|
D|-4-4-4-4--6-6-6-6--4-4-4-4--2-| (1x)
A|-2-2-2-2--6-6-6-6--4-4-4-4--2-|
E|----------4-4-4-4--2-2-2-2--0-|

[Outro]
 Guitar 2 (rythm)
e|--------------------------------------------------------------------|
B|--------------------------------------------------------------------|
G|-4-4-4-4-4-4-4-4----------------------------------------------------|
D|-4-4-4-4-4-4-4-4--4-4-4-4-4-4-4-4--6-6-6-6-6-6-6-6--2-2-2-2-2-2-2-2-| (2x)
A|-2-2-2-2-2-2-2-2--4-4-4-4-4-4-4-4--6-6-6-6-6-6-6-6--2-2-2-2-2-2-2-2-|
E|------------------2-2-2-2-2-2-2-2--4-4-4-4-4-4-4-4--0-0-0-0-0-0-0-0-|

************************************

| x  Dead note
| h  Hammer-on
| p  Pull-off
| ~  Vibrato
| /  Slide up
| \  Slide down
| .  Staccato

************************************
Suggest correction
comments
print report bad tab
17 comments total. Showing first comments.
+1 reply
HyperBoy2519 50 Jul 06, 2007 08:57 PM

This tab is right. the other one wasnt right at all. Great job 5*

0 reply
AvAaron182 87 Jul 23, 2007 10:01 AM

very nice, i just noticed a simple typo in the interlude, take a look at it
its in the 2nd measure on the interlude there's an 8 that should be a 6
and you missed a small lead part in the chours
but still very good, way better then the other

-1 reply
fireliar90 10 Jul 25, 2007 08:28 AM

cool this tab is really good

guest
You may want to rate the tab now too:
select rating
Wanna post a correction for this tab? Suggest correction