Oops, an error
Loading. Please wait.

War Bass Tab

214 views 42 this week
no commentswrite comment
1 2 3 4 5
3 more votes to show rating
add to favorites
launch autoscroll
font size
0
reset
guitar tuner
Autoscroll
slow
fast
+/-
esc
set tempo
stop
Help us to improve Ultimate-Guitar.com Take our survey!
×
Author
Difficulty
Tabbed By:Josecar
Album:13 Voices
Band:Sum 41
Song:War
Date:2016
My YT Channel Of Bass Cover:https://www.youtube.com/channel/UCg9O-Rug1KEvY3jmKHY8R-Q
(Write me a coment if you want any bass tab)






[0:35]

F#|-------------------|
C#|-------------------|
G#|--7------5---------|X2
D#|-----3------5------|



[0:56]

F#|------------------------------------------------------16-------------------|
C#|--------------------------------------------------16-----------------------|
G#|--3-3-3-3--X3--3-3-3-4---2-2-2-2--X2---------/14---------------------------|
D#|---------------------------------------------------------------------------|



[1:08]

F#|---------------------------------------------------------------------------|
C#|----------------------------------------------------9-9-9-9----------------|
G#|----------------------------5-5-5-5--X2------------------------------------|X2
D#|--0-0-0-0--X2--3-3-3-3--X2---------------7-7-7-7---------------------------|



[1:32]

F#|---------------------------------------------------------------------------|
C#|---------------------------------------------------------------------------|
G#|----------------------------5-5-5-5--X2------------------------------------|X2
D#|--0-0-0-0--X2--3-3-3-3--X2---------------7-7-7-7--X2-----------------------|

[1:54]

F#|------------------------------------------------------16-------------------|
C#|--------------------------------------------------16-----------------------|
G#|--3-3-3-3--X3--3-3-3-4---2-2-2-2--X2---------/14---------------------------|
D#|---------------------------------------------------------------------------|



[2:05]

F#|---------------------------------------------------------------------------|
C#|----------------------------------------------------9-9-9-9----------------|
G#|----------------------------5-5-5-5--X2------------------------------------|X4
D#|--0-0-0-0--X2--3-3-3-3--X2---------------7-7-7-7---------------------------|



[2:58]

F#|---------------------------------------------------------------------------|
C#|----------------------------------------------------9-9-9-9----------------|
G#|----------------------------5-5-5-5--X2------------------------------------|X4
D#|--0-0-0-0--X2--3-3-3-3--X2---------------7-7-7-7---------------------------|


************************************

| x   Dead note
| g   Grace note
| (n) Ghost note
| h   Hammer-on
| p   Pull-off
| r   Release
| >   Accented note
| t   Tapping
| b   Bend
| br  Bend release
| pb  Pre-bend
| pbr Pre-bend release
| /   Slide up
| \   Slide down
| ~   Vibrato
| s   Slap
| P   Pop
| PM  Palm mute
| TR  Trill
| N   Tremolo

************************************
Suggest correction
Give kudos to tab author, rate the tab!
1 2 3 4 5
comments
print report bad tab
guest
You may want to rate the tab now too:
select rating
Wanna post a correction for this tab? Suggest correction