Oops, an error
Loading. Please wait.

War Tab

version 3
version 3

Whole song

  • Great new song from Sum 41.
  • The other versions are in standard tuning but the ... Show more
265 views 30 this week
1 commentread comment
1 2 3 4 5
3 more votes to show rating
add to favorites
launch autoscroll
font size
0
reset
how to read this tab
guitar tuner
Autoscroll
slow
fast
+/-
esc
set tempo
stop
Help us to improve Ultimate-Guitar.com Take our survey!
×
Author
Difficulty
Tuning
novice
C# G# C# F# A# D#
About this tab version
The other versions are in standard tuning but the song is in half-step down or drop C#. The fingerings are clearly not in standard tuning in the official music video. Was this info helpful? Yes No
War
Sum 41
13 Voices


[Verse] (x2)

Guitar 1
D#|-7-7-7-7-7-7-7-7-7-7-7-7-7-7-7-7-5-5-5-5-5-5-5-5-5-5-5-5-5-5-5-5-----------|
A#|-8-8-8-8-8-8-8-8-8-8-8-8-8-8-8-8-7-7-7-7-7-7-7-7-5-5-5-5-5-5-5-5-----------|
F#|-9-9-9-9-9-9-9-9-7-7-7-7-7-7-7-7-7-7-7-7-7-7-7-7-6-6-6-6-6-6-6-6-----------|
C#|---------------------------------------------------------------------------|
G#|---------------------------------------------------------------------------|
C#|---------------------------------------------------------------------------|

Guitar 2
D#|---------------------------------------------------------------------------|
A#|---------------------------------------------------------------------------|
F#|---------------------------------------------------------------------------|
C#|---------------------------------------------------------------------------|
G#|---------------------------------------------------------------------------|
C#|-2~--------------5~----------7---0~--------------7-------------------------|


[Pre-Chorus]

Guitar 1
D#|-3~--------------------------------2~------------7~------------------------|
A#|-5~--------------------------------4~------------7~------------------------|
F#|-5~--------------------------------4~------------8~------------------------|
C#|---------------------------------------------------------------------------|
G#|---------------------------------------------------------------------------|
C#|---------------------------------------------------------------------------|

Guitar 2
D#|---------------------------------------------------------------------------|
A#|---------------------------------------------------------------------------|
F#|-5-5-5-5-5-5-5-5-5-5-5-5-5-5-5-7~--4-4-4-4-4-4-4-4~------------------------|
C#|---------------------------------------------------------------------------|
G#|-3-3-3-3-3-3-3-3-3-3-3-3-3-3-3-5~--2-2-2-2-2-2-2-2~------------------------|
C#|---------------------------------------------------------------------------|


[Chorus] (x2)

Guitar 2
D#|---------------------------------------------------------------------------|
A#|---------------------------------------------------------------------------|
F#|---------------------------------7-7-7-7-7-7-7-7-4-4-4-4-4-4-4-4-----------|
C#|-2-2-2-2-2-2-2-2-5-5-5-5-5-5-5-5-7-7-7-7-7-7-7-7-4-4-4-4-4-4-4-4-----------|
G#|-2-2-2-2-2-2-2-2-5-5-5-5-5-5-5-5-5-5-5-5-5-5-5-5-2-2-2-2-2-2-2-2-----------|
C#|-2-2-2-2-2-2-2-2-5-5-5-5-5-5-5-5-------------------------------------------|


[Verse](x2)

[Pre-Chorus]

[Chorus](x2)

[Bridge/Outro](x2)

Guitar 1
D#|-------------------------------------------------------------------------------------|
A#|-------------------------------------------------------------------------------------|
F#|-9-9-9-12-12-11-11-7-7-7-12-12-11-11--11-11-11-12-12-14-14~--16-16-16-16-16-16-16-16-|
C#|-------------------------------------------------------------------------------------|
G#|-7-7-7-10-10-9--9~-5-5-5-10-10-9--9~--9--9--9--10-10-12-12~--14-14-14-14-14-14-14-14-|
C#|-------------------------------------------------------------------------------------|

Guitar 2 plays the chords of the Chorus here


[Final Chorus](x2)

Guitar 1
D#|-7-7-7-7-7-7-7-7-7-7-7-7-7-7-7-7-5-5-5-5-5-5-5-5-2-2-2-2-2-2-2-2-----------|
A#|-8-8-8-8-8-8-8-8-8-8-8-8-8-8-8-8-7-7-7-7-7-7-7-7-4-4-4-4-4-4-4-4-----------|
F#|-9-9-9-9-9-9-9-9-7-7-7-7-7-7-7-7-7-7-7-7-7-7-7-7-4-4-4-4-4-4-4-4-----------|
C#|---------------------------------------------------------------------------|
G#|---------------------------------------------------------------------------|
C#|---------------------------------------------------------------------------|

Guitar 2
D#|---------------------------------------------------------------------------|
A#|---------------------------------------------------------------------------|
F#|---------------------------------7-7-7-7-7-7-7-7-4-4-4-4-4-4-4-4-----------|
C#|-2-2-2-2-2-2-2-2-5-5-5-5-5-5-5-5-7-7-7-7-7-7-7-7-4-4-4-4-4-4-4-4-----------|
G#|-2-2-2-2-2-2-2-2-5-5-5-5-5-5-5-5-5-5-5-5-5-5-5-5-2-2-2-2-2-2-2-2-----------|
C#|-2-2-2-2-2-2-2-2-5-5-5-5-5-5-5-5-------------------------------------------|

[Bridge/Outro] (x2)


************************************

| ~  let note ring

************************************
Suggest correction
Give kudos to tab author, rate the tab!
1 2 3 4 5
comments
print report bad tab
1 comment total.
0 reply
littlerockeur 83 7 days ago

Great I think it's the one, better than mine ;)

guest
You may want to rate the tab now too:
select rating
Wanna post a correction for this tab? Suggest correction