Oops, an error
Loading. Please wait.
We have an official Welcome To Hell tab made by UG professional guitarists. Check out the tab »
×
by Sum 41
2,042 views 1 this week
4 commentsread comments
1 2 3 4 5
x 4
add to favorites
×
Save as Personal and add changes to this tab that will be seen only by you. Learn more ›
×
You can save this tab as Personal to edit and correct it or add notes. All changes will be seen only by you. Learn more »
launch autoscroll
font size
0
reset
guitar tuner
edit
Autoscroll
slow
fast
+/-
esc
set tempo
stop
Author
Difficulty
I was surprised to see there no tab for this so heres my attempt at it, hope its useful.

tune down half a step

Verse

Gb-----------------------------------------------------|
Db-----------------------------------------------------|
Ab--/(slide)7-7-5-7-7-5-7-7-5-7-7-5------5-5-5---------|
Eb----------------------------------3-3-3------3-3-3-0-|

Chorus

Gb-------------------------------------|
Db------------------------4-5-4--------|   X2
Ab-3-3-3-3-3-----------5-7------5-7----|
Eb-----------3-3-3-3-3-----------------|
then
Gb------------------------------------------------------------------------|
Db-----------5-5-5-5-5----4-5-4-------------------------------------------|
Ab-3-3-3-3-3-----------5-7------5-7----------2-2-2-2-2----------5-5-5-5-5-|
Eb----------------------------------0-0-0-0-0----------3-3-3-3-3----------|

Bass Solo

Gb--------------------------------------|
Db-----------5-5-6/2-----------5-5-6/2--| contd
Ab-7-7-7-7-7--------7-7-7-7-7-----------|
Eb--------------------------------------|

Gb-8-99999999999----------------------------|
Db---------------9-10-9---------------------|
Ab----------------------10-12-10-8-10-9-7-9-|
Eb------------------------------------------|

there isnt a break here it is just that i couldnt fit it all into 1 line so i tried to make it neat

Bass Breakdown

Gb-----4--------------------|
Db-2-2---5-5----------------|  X6
Ab-----------2-5-5-2----2-5-|
Eb-------------------3-5----|

it then goes:

Gb-------4-4----------------------------|
Db-2-2-2-----5-5-5----------------------| X2
Ab-----------------2--5-5-5-5-2----2-5--|
Eb------------------------------3-5-----|

Outro

Gb---------------------------------------|
Db---------------------------------------|
Ab-7-7-7-3-5-3-7-7-7-3-5-3-7-7-7-3-5-3---|
Eb-------------------------------------0-|


Structure:

Verse
Chorus
Bass solo
Verse
Chorus
Bass Breakdown
Chorus
Outro

There you go, Feel free to notify me of any mistakes

            
            
Suggest correction
Creating personal tab
Creating personal tab
You can edit any tab online and save it as your Personal.

You can edit, replace or remove any tab part or add personal notes – all changes will be seen only by you.

Personal tabs can be accessed anytime from any device, even offline.
Learn more »
comments
print report bad tab
4 comments total. Showing first comments.
0 reply
Michael_D 94 Apr 13, 2007 11:33 AM

This is a five star, thats what I believe

0 reply
Michael_D 94 Apr 23, 2007 07:58 AM

Some say the downtuning is not accurate, but those people have to open thier eyes

0 reply
Michael_D 94 May 16, 2007 04:40 AM

Last time i checked this site there was no tab for this song, i almost had a heart attack. Thank you Mr Bassin Joe for your tab, Im Not The One to make them.

guest
You may want to rate the tab now too:
select rating
Wanna post a correction for this tab? Suggest correction