Oops, an error
Loading. Please wait.

Welcome To Hell Tab

version 2
version 2

Whole song

Interactive

7,786 views 15 this week
5 commentsread comments
1 2 3 4 5
excellent!
x 12
add to favorites
launch autoscroll
font size
0
reset
how to read this tab
guitar tuner
Tab Pro tools
  • play this tab
  • loop segment
  • change instrument
  • show fretboard
  • metronome
×
Best way to learn
"Welcome To Hell"
Autoscroll
slow
fast
+/-
esc
set tempo
stop
Contributor
Song:       Welcome to Hell
Artist:     Sum41
Album:      Chuck
Tabbed by : Dan Benz (DanSumthing@aol.com)

This song is classic Sum 41. Simple, fast,
and, well... it's about hell. 

Tuning: Down 1/2 step 

Guitars must be tuned down a half-step, alternate tuning is necessary 
in order to play the forth measure in each verse correctly. Example:
eb|----------------|
Bb|----------------|
Gb|----------------|
Db|--------9-9-9-9-|
Ab|--------7-7-7-7-|
Eb|--------0-0-0-0-|
         Eb^ ^ ^ ^

In this tab, chord names are written out
according to sound, not fret position.

Intro
   Eb5              F#5     C#5      Eb5              F#5     C#5
eb|----------------|----------------|----------------|----------------|
Bb|----------------|----------------|----------------|----------------|
Gb|----------------|----------------|----------------|----------------|
Db|9-9-977-9-9-777-|--------7-7-7777|9-9-977-9-9-777-|--------7-7-----|
Ab|7-7-755-7-7-555-|5-5-55555-5-5555|7-7-755-7-7-555-|5-5-55555-5-----|
Eb|----------------|3-3-3333--------|----------------|3-3-3333--------|
   1 + 2e+ 3 + 4e+ 

Verse
   Eb5                               F#5     C#5      F#5     Eb5
eb|----------------|----------------|----------------|----------------|
Bb|----------------|----------------|----------------|----------------|
Gb|----------------|----------------|----------------|----------------| x2
Db|9-9-9-7-9-9-9-7-|9-9-9-7-9-9-9-7-|--------7-7-7-7-|--------9-9-9-9-|
Ab|7-7-7-5-7-7-7-5-|7-7-7-5-7-7-7-5-|5-5-5-5-5-5-5-5-|5-5-5-5-7-7-7-7-|
Eb|----------------|----------------|3-3-3-3---------|3-3-3-3-0-0-0-0-|

Similar to intro      
   Eb5              F#5     C#5      Eb5              F#5     C#5
eb|----------------|----------------|----------------|----------------|
Bb|----------------|----------------|----------------|----------------|
Gb|----------------|----------------|----------------|----------------|
Db|9-9-977-9-9-777-|--------7-7-7777|9-9-977-9-9-977-|--------7-7-7---|
Ab|7-7-755-7-7-555-|5-5-55555-5-5555|7-7-755-7-7-755-|5-5-55555-5-5---|
Eb|----------------|3-3-3333--------|----------------|3-3-3333--------|

Verse 2
   Eb5                               F#5     C#5      F#5     Eb5
eb|----------------|----------------|----------------|----------------|
Bb|----------------|----------------|----------------|----------------|
Gb|----------------|----------------|----------------|----------------| 
Db|9-9-9-7-9-9-9-7-|9-9-9-7-9-9-9-7-|--------7-7-7-7-|--------9-9-9-9-|
Ab|7-7-7-5-7-7-7-5-|7-7-7-5-7-7-7-5-|5-5-5-5-5-5-5-5-|5-5-5-5-7-7-7-7-|
Eb|----------------|----------------|3-3-3-3---------|3-3-3-3-0-0-0-0-|

   Eb5                               F#5     C#5      F#5     Eb5
eb|----------------|----------------|----------------|----------------|
Bb|----------------|----------------|----------------|----------------|
Gb|----------------|----------------|----------------|----------------| 
Db|9-9-9-7-9-9-9-7-|9-9-9-7-9-9-9-7-|--------7-7-7-7-|----------------|
Ab|7-7-7-5-7-7-7-5-|7-7-7-5-7-7-7-5-|5-5-5-5-5-5-5-5-|5-5-5-5-2-2-2-2-|
Eb|----------------|----------------|3-3-3-3---------|3-3-3-3-0-0-0-0-|

Bridge
   B5      F#5      C#      Ebm      B5      F#5      C#5     Ebm
eb|----------------|----------------|----------------|----------------|
Bb|----------------|7-7-7-7-8-8-8-8-|----------------|7-7-7-7-8-8-8-8-|
Gb|5-5-5-5---------|7-7-7-7-9-9-9-9-|5-5-5-5---------|7-7-7-7-9-9-9-9-|  
Db|5-5-5-5-5-5-5-5-|7-7-7-7-9-9-9-9-|5-5-5-5-5-5-5-5-|7-7-7-7-9-9-9-9-|
Ab|3-3-3-3-5-5-5-5-|5-5-5-5-7-7-7-7-|3-3-3-3-5-5-5-5-|5-5-5-5-7-7-7-7-|
Eb|--------3-3-3-3-|----------------|--------3-3-3-3-|----------------|

   B5      F#5      C#      Ebm      Eb5     Bb5      F#5     C#5
eb|----------------|----------------|----------------|----------------|
Bb|----------------|----------------|----------------|----------------|
Gb|5-5-5-5---------|7-7-7-7-9-9-9-9-|--------4-4-4-4-|--------7-7-7-7-|  
Db|5-5-5-5-5-5-5-5-|7-7-7-7-9-9-9-9-|2-2-2-2-4-4-4-4-|5-5-5-5-7-7-7-7-|
Ab|3-3-3-3-5-5-5-5-|5-5-5-5-7-7-7-7-|2-2-2-2-2-2-2-2-|5-5-5-5-5-5-5-5-|
Eb|--------3-3-3-3-|----------------|0-0-0-0---------|3-3-3-3---------|

   Eb5 {Bass solo.....................................................}
eb|----------------|----------------|----------------|----------------|
Bb|----------------|----------------|----------------|----------------|
Gb|9\--------------|----------------|----------------|----------------|  
Db|9\--------------|----------------|----------------|------------X---|
Ab|7\--------------|----------------|----------------|------------X---|
Eb|----------------|----------------|----------------|------------X---|
                                                      pick scrape ^
Verse 3
   Eb5                               F#5     C#5      F#5     Eb5
eb|----------------|----------------|----------------|----------------|
Bb|----------------|----------------|----------------|----------------|
Gb|----------------|----------------|----------------|----------------| x2
Db|9-9-9-7-9-9-9-7-|9-9-9-7-9-9-9-7-|--------7-7-7-7-|--------9-9-9-9-|
Ab|7-7-7-5-7-7-7-5-|7-7-7-5-7-7-7-5-|5-5-5-5-5-5-5-5-|5-5-5-5-7-7-7-7-|
Eb|----------------|----------------|3-3-3-3---------|3-3-3-3-0-0-0-0-|


Repeat Bridge


After repeating the bridge, hold this Eb5 for a long time. There are
16 measures of bass, drums, weird sound effects, and feedback here.
   Eb5             {      x15       }    
eb|----------------|----------------|
Bb|----------------|----------------|
Gb|9~~~~~~---------|----------------| 
Db|9~~~~~~---------|----------------|
Ab|7~~~~~~---------|----------------|
Eb|----------------|----------------|


Repeat Bridge
 

   Eb5    B5 C#5 B5 Eb5    B5 C#5 B5 Eb5    B5 C#5 B5 Eb5
eb|----------------|----------------|----------------|----------------|
Bb|----------------|----------------|----------------|----------------|
Gb|----------------|----------------|----------------|9---------------|  
Db|9999--995--7--5-|9999--995--7--5-|9999--995--7--9-|9---------------|
Ab|7777--773--5--3-|7777--773--5--3-|7777--773--5--9-|7---------------|
Eb|----------------|----------------|--------------7-|----------------|
   1e+a  +a3  a  +                  palm mute this ^ 
                                                                             End of song.
comments
print report bad tab
5 comments total. Showing first comments.
+1 reply
Rokonbrutha wrote on October 20 2004, 12:00 am

Yeah, this tab is correct. A lot of the songs off of Chuck are tuned down a half step like this one.

0 reply
DanSumthing wrote on November 18 2004, 12:00 am

I don't know why, but I wrote bridge instead of chorus when I tabbed this. Not really a big deal, but still...

0 reply
phindian848 wrote on January 18 2006, 04:46 pm

copied from book!

I want to post or [tab]
guest
You may want to rate the tab now too:
select rating
Please do not post tabs as comments. Select "correction" instead!