Oops, an error
Loading. Please wait.
We have an official Welcome To Hell tab made by UG professional guitarists. Check out the tab »
×
by Sum 41
3,955 views 9 this week
no commentswrite comment
1 2 3 4 5
x 6
add to favorites
×
Save as Personal and add changes to this tab that will be seen only by you. Learn more ›
×
You can save this tab as Personal to edit and correct it or add notes. All changes will be seen only by you. Learn more »
launch autoscroll
font size
0
reset
guitar tuner
edit
Autoscroll
slow
fast
+/-
esc
set tempo
stop
Artist: Sum 41
Song: Welcome To Hell
tabbed by: necriononguitar
Email: tim.rathgen@gmx.de

REAL FANS SUPPORT BANDS BY PURCHASING THEIR CD'S!!!


Tuning: Drop D

. = Palm-Muted
~ = hold note
^ = vibrate
p = pull off
h = hammer on
/ = slide up
\ = slide down


Intro:
G--------|
D--------|
A--------|
E--12\---|


Verse: 0:05
G-----------------------------------------------------------------------\---/
D---------------------------------------------------------------------------/ \
A--7-7-7-5--7-7-7-5--7-7-7-5--7-7-7-5----------5-5-5-5----------------------/ x2
E-------------------------------------3-3-3-3---------3-3-3-3--0-0-0-0------/

G--------------------------------------------------------------------------|
D--------------------------------------------------------------------------|
A--7-7-7-5--7-7-5-5-----------5-5-5-5--7-7-7-5--7-7-7-5-----------5-5-5----|
E--------------------3-3-3-3-----------------------------3-3-3-3-----------|


Verse x2


Chorus: 0:34
G-------------------------------------\---/
D------------------------5-4---------- \--/ x2
A--3-3-3-3---------5-5-7-----7-5-7--------/ /
E----------3-3-3-3------------------------/

G--------------------------------------------------------------------------|
D-----------5-5-5-5-------5-4----------------------------------------------|
A--3-3-3-3----------5-5-7-----7-5-7-------------3-3-3-3----------5-5-5-5---|
E---------------------------------------0-0-0-0----------3-3-3-3-----------|


Bass-Solo: 0:45
G----------------------------------99999999-------------------------------|
D----------5-5-7-5---------5-5-7-7----------9-10-9--7-9-7--5-7-5--4-5-4---|
A--7-7-7-7---------7-7-7-7------------------------------------------------|
E-------------------------------------------------------------------------|


Verse x2


Whole Chorus thing x1


Normal Interlude: 1:14
G------------------------------------------\---/
D--------9-------------------------------------/ \
A--7-10-----10-10------------------------------/ x8
E------------------7-10-10--5-7-8-10-10--------/

Alternative Interlude (You can also play this, instead of the normal Interlude, for 
every 2nd time):

G--------------------------------------------|
D-------9---------------------12-10-9--------|
A--7-10---10-10------------10---------12-----|
E---------------7-10-10-12-------------------|


Chrous x1


Outro: 1:48
G----------------\---/
D----9----------- \--/ x3
A--77--7--33--55-----/ /
E--------------------/


Thats it! I hope this helped, please rate, comment and correct me!

Cheers...

            
            
Suggest correction
Creating personal tab
Creating personal tab
You can edit any tab online and save it as your Personal.

You can edit, replace or remove any tab part or add personal notes – all changes will be seen only by you.

Personal tabs can be accessed anytime from any device, even offline.
Learn more »
comments
print report bad tab
guest
You may want to rate the tab now too:
select rating
Wanna post a correction for this tab? Suggest correction