Oops, an error
Loading. Please wait.

Were All To Blame bass

version 3
version 3
by Sum 41
4,188 views 3 this week
1 commentread comment
1 2 3 4 5
x 3
add to favorites
×
Save as Personal and add changes to this tab that will be seen only by you. Learn more ›
×
You can save this tab as Personal to edit and correct it or add notes. All changes will be seen only by you. Learn more »
launch autoscroll
font size
0
reset
guitar tuner
edit
Autoscroll
slow
fast
+/-
esc
set tempo
stop
Sum 41 - Were All To Blame

Intro - no bass

*0.07
G|----------------------------------------------|
D|----------------------------------------------|
A|----------------------------------------------|
E|-7-6-7--9-6-9-000000000--000000000--000000000-|

G|--------------------------------------|
D|--------------------------------------|
A|--------------------------------------|
E|-7-6-7--9-6-9--7-6-7--9-6-9---0-0-0-0-|

G|-----------------------------------|
D|-----------------------------------|  x3
A|-----------------------------------|
E|-0-0-2--0-0-2--0-0-2--0-2-0-2-0~---|

G|----------------------------------|
D|----------------------------------|
A|----------------------------------|
E|-0-0-2--0-0-2/7-6-7--9-6-9--4~----|


Chorus
G|---------------------------------|
D|---------------------------------|  x2
A|---------4-4-4-2---------6-6-4-4-|
E|-4-4-4-4---------2-2-2-2---------|

G|-------------------------------------|
D|-------------------------------------|
A|---------4-4-4-2---------6-6-4-4-----|
E|-4-4-4-4---------2-2-2-2---------4~--|


Verse
G|------------------------|
D|------------------------|
A|------------------------|
E|-7-6-7--9-6-9---0-0-0-0-|

G|-----------------------------------|
D|-----------------------------------|  x3
A|-----------------------------------|
E|-0-0-2--0-0-2--0-0-2--0-2-0-2-0~---|

G|----------------------------------|
D|----------------------------------|
A|----------------------------------|
E|-0-0-2--0-0-2/7-6-7--9-6-9--4~----|


Chorus
G|---------------------------------|
D|---------------------------------|  x2
A|---------4-4-4-2---------6-6-4-4-|
E|-4-4-4-4---------2-2-2-2---------|

G|-------------------------------------|
D|-------------------------------------|  x2
A|-------------------------------------|
E|-4-4-4-4-12-12-12-12-7-7-7-7-6-6-6-6-| (12's)


Bridge
G|----------------------------------|
D|--------------------------------2-|  x2
A|-------------------------------2--|
E|-0-XXXX-2-0-XXXX-2-0-XXXX-2-0-2---|

G|--------------------------------|
D|--------------------------------|
A|-----------6----------6---------|
E|--0000000----0000000----0000000-|

G|----------------------------------------------------|
D|----------------------------------------------------|
A|-6------------------------2-----------1-----------2-|
E|---0000000-0000-000000000---000000000---000000000---|

G|---------------------------------|
D|---------------------------------|
A|---------------------------------|
E|-0-0-0-0-0-0-0-0-0-0-0-0-0-0-0-0-|


Chorus
G|---------------------------------|
D|---------------------------------|  x2
A|---------4-4-4-2---------6-6-4-4-|
E|-4-4-4-4---------2-2-2-2---------|

G|-------------------------------------|       |----|
D|-------------------------------------|  x4   |----|
A|-------------------------------------|       |----|
E|-4-4-4-4-12-12-12-12-7-7-7-7-6-6-6-6-| last >|-4~-|

Break

*3.18
G|---------------------------------|
D|---------------------------------|
A|---------4~--------------6~------|
E|-4~--------------2~--------------|

G|-----------------------------------------|
D|-----------------------------------------|
A|---------4~--------------6~--------------|
E|-4~--------------2~--------------4~------|


Suggest correction
Creating personal tab
Creating personal tab
You can edit any tab online and save it as your Personal.

You can edit, replace or remove any tab part or add personal notes – all changes will be seen only by you.

Personal tabs can be accessed anytime from any device, even offline.
Learn more »
Give kudos to tab author, rate the tab!
1 2 3 4 5
comments
print report bad tab
1 comment total.
0 reply
HiMyNameIsMatt 190 Jun 14, 2007 07:56 AM

ok a few things Ive noticed wrong with my own tab....
the first chorus is more like this:
G|---------------------------------|
D|---------------------------------| x2
A|---------4-4-4-4---------6-6-6-6-|
E|-4-4-4-4---------2-2-2-2---------|

and also verse should be more like this:
(each 2 hammered on and an extra E after)
G|-------|
D|-------|
A|-------|
E|-00h20-|

guest
You may want to rate the tab now too:
select rating
Wanna post a correction for this tab? Suggest correction