Oops, an error
Loading. Please wait.

Were All To Blame tab

version 5
by Sum 41
17,574 views 15 this week
2 commentsread comments
1 2 3 4 5
x 6
add to favorites
×
Save as Personal and add changes to this tab that will be seen only by you. Learn more ›
×
You can save this tab as Personal to edit and correct it or add notes. All changes will be seen only by you. Learn more »
launch autoscroll
font size
0
reset
how to read this tab
guitar tuner
edit
Autoscroll
slow
fast
+/-
esc
set tempo
stop
Author
We're All To Blame !
tuning: Eb Ab Db Gb Bb eb [half step down]

i'll tab this thing like this

eb|---------||
Bb|---------||
Gb|---------||
Db|---------||
Ab|---------||
Eb|---------||
  |         ||
  |         ||
eb|---------||
Bb|---------||
Gb|---------||
Db|---------||
Ab|---------||
Eb|---------||

upper part will be Dave's part and lower Deryck's.. so here it is:

INTRO

eb|--------------------------------------------------||
Bb|--------------------------------------------------||
Gb|-9-999-9999-10-9-9-999-9999-10-9-9-999-9999-10-9--||
Db|-x-xxx-xxxx-xx-x-x-xxx-xxxx-xx-x-x-xxx-xxxx-xx-x--||
Ab|-7-777-7777--8-7-7-777-7777--8-7-7-777-7777--8-7--||
Eb|--------------------------------------------------||
  |                                                  ||
  |                                                  ||
eb|--------------------------------------------------||
Bb|--------------------------------------------------||
Gb|--------------------------------------------------||
Db|--------------------------------------------------||
Ab|--------------------------------------------------||
Eb|--------------------------------------------------||


eb|--------------||
Bb|--------------||
Gb|--------------||
Db|-5-4-5-7-2-3--||
Ab|-3-2-3-5-2-3--||
Eb|--------------||
  |              ||
  |              ||
eb|--------------||
Bb|--------------||
Gb|--------------||
Db|-5-4-5-7-4-5--||
Ab|-3-2-3-5-2-3--||
Eb|--------------||


eb|------------------------------------------||
Bb|------------------------------------------||
Gb|-----------<5>----------<5>----------<5>--||
Db|-----------<5>----------<5>----------<5>--||
Ab|-2-2222222-----22222222-----22222222------||
Eb|-0-0000000-----00000000-----00000000------||
  |   .......     ........     ........      ||
  |                                          ||
eb|------------------------------------------||
Bb|------------------------------------------||
Gb|------------------------------------------||
Db|------------------------------------------||
Ab|-2-2222222-----22222222-----22222222------||
Eb|-0-0000000-----00000000-----00000000------||
      .......     ........     ........

eb|---------------------------------------||
Bb|---------------------------------------||
Gb|---------------------------------------||
Db|-5-4-5-7-2-3--5-4-5-7-4-5--------------||
Ab|-3-2-3-5-2-3--3-2-3-5-2-3--2--2--2--2--||
Eb|---------------------------0--0--0--0--||
  |PM            . . . . . .              ||
  |                                       ||
eb|---------------------------------------||
Bb|---------------------------------------||
Gb|---------------------------------------||
Db|-5-4-5-7-2-3--5-4-5-7-4-5--------------||
Ab|-3-2-3-5-2-3--3-2-3-5-2-3--2--2--2--2--||
Eb|---------------------------0--0--0--0--||
   PM            . . . . . .


VERSE 1

eb|-----------------------------------||
Bb|-----------------------------------||
Gb|-----------------------------------||
Db|-----------------------------------||
Ab|-77777777-2222-55555555-3333-2222--||
Eb|-----------------------------------||
  |                                   ||
  |                                   ||
eb|-----------------------------------||
Bb|-----------------------------------||
Gb|-----------------------------------||
Db|-----------------------------------||
Ab|-----------------------------------||
Eb|-----------------------------------||

eb|-------------------------------------||
Bb|-------------------------------------||
Gb|-------------------------------------||
Db|-------------------------------------||
Ab|-2--2-5-2-2--2-4-2-2--2-3-2-2--3--3--||
Eb|-0--0-3-0-0--0-2-0-0--0-1-0-0--1--1--||
  | .  . . . .  . . . .  . . . .        ||
  |                                     ||
eb|-------------------------------------||
Bb|-------------------------------------||
Gb|-------------------------------------||
Db|-------------------------------------||
Ab|-2--2-5-2-2--2-4-2-2--2-3-2-2--3--3--||
Eb|-0--0-3-0-0--0-2-0-0--0-1-0-0--1--1--||
    .  . . . .  . . . .  . . . .

eb|-----------------------------------||
Bb|-----------------------------------||
Gb|-----------------------------------||
Db|-----------------------------------||
Ab|-77777777-0000-22222222-5555-3333--||
Eb|-----------------------------------||
  |                                   ||
  |                                   ||
eb|-----------------------------------||
Bb|-----------------------------------||
Gb|-----------------------------------||
Db|-----------------------------------||
Ab|-----------------------------------||
Eb|-----------------------------------||

eb|-------------------------------------||
Bb|-------------------------------------||
Gb|-------------------------------------||
Db|-------------------------------------||
Ab|-2--2-5-2-2--2-4-2-2--2-3-2-2--3--3--||
Eb|-0--0-3-0-0--0-2-0-0--0-1-0-0--1--1--||
  | .  . . . .  . . . .  . . . .        ||
  |                                     ||
eb|-------------------------------------||
Bb|-------------------------------------||
Gb|-------------------------------------||
Db|-------------------------------------||
Ab|-2--2-5-2-2--2-4-2-2--2-3-2-2--3--3--||
Eb|-0--0-3-0-0--0-2-0-0--0-1-0-0--1--1--||
    .  . . . .  . . . .  . . . .

eb|-----------------------------------||
Bb|-----------------------------------||
Gb|-----------------------------------||
Db|-----------------------------------||
Ab|-77777777-2222-55555555-3333-2222--||
Eb|-----------------------------------||
  |                                   ||
  |                                   ||
eb|-----------------------------------||
Bb|-----------------------------------||
Gb|-----------------------------------||
Db|-----------------------------------||
Ab|-10~-----------12~------9~---5-----||
Eb|-----------------------------------||

eb|-------------------------------------||
Bb|-------------------------------------||
Gb|-------------------------------------||
Db|-------------------------------------||
Ab|-2--2-5-2-2--2-4-2-2--2-3-2-2--3--3--||
Eb|-0--0-3-0-0--0-2-0-0--0-1-0-0--1--1--||
  | .  . . . .  . . . .  . . . .        ||
  |                                     ||
eb|-------------------------------------||
Bb|-------------------------------------||
Gb|-------------------------------------||
Db|-------------------------------------||
Ab|-2--2-5-2-2--2-4-2-2--2-3-2-2--3--3--||
Eb|-0--0-3-0-0--0-2-0-0--0-1-0-0--1--1--||
    .  . . . .  . . . .  . . . .

eb|-----------------------------------||
Bb|-----------------------------------||
Gb|-----------------------------------||
Db|-----------------------------------||
Ab|-77777777-0000-22222222-5555-3333--||
Eb|-----------------------------------||
  |                                   ||
  |                                   ||
eb|-----------------------------------||
Bb|-----------------------------------||
Gb|-----------------------------------||
Db|-10~-----------9~-------12~--9-----||
Ab|-----------------------------------||
Eb|-----------------------------------||

eb|---------------------------------||
Bb|---------------------------------||
Gb|---------------------------------||
Db|---------------------------------||
Ab|-2--2-5-2-2--2-4-2--5-4-5-7-4-5--||
Eb|-0--0-3-0-0--0-2-0--3-2-3-5-2-3--||
  | .  . . . .  . . .               ||
  |                                 ||
eb|---------------------------------||
Bb|---------------------------------||
Gb|---------------------------------||
Db|---------------------------------||
Ab|-2--2-5-2-2--2-4-2--5-4-5-7-4-5--||
Eb|-0--0-3-0-0--0-2-0--3-2-3-5-2-3--||
  | .  . . . .  . . .               ||


CHORUS 1

eb|----------------------||
Bb|----------------------||
Gb|----------------------||
Db|-2~-------------------||
Ab|-0~-------------------||
Eb|----------------------||
  |                      ||
  | Am    Dm    G    Em  ||
eb|-0-----1-----3----0---||
Bb|-1-----3-----3----0---||
Gb|-2-----2-----0----0---||
Db|-2-----0-----0----2---||
Ab|-0-----------2----2---||
Eb|-------------3----0---||


eb|-5-----------1-------3---0--------||
Bb|---5---5---3---3---3---3---0---0--||
Gb|-----5---2-------0-----------0----||
Db|----------------------------------|| \
Ab|----------------------------------||  \
Eb|----------------------------------||   \
  |                                  ||    play 3x
  | Am      Dm      G       Em       ||   /
eb|----------------------------------||  /
Bb|----------------------------------|| /
Gb|----------------------------------||
Db|----------------------------------||
Ab|----------------------------------||
Eb|----------------------------------||


RIFF TO VERSE 2:

eb|-0--||      |--------------------------||
Bb|-0--||      |--------------------------||
Gb|----||      |--------------------------||
Db|----||      |-5-4-5-7-2-3--------------||
Ab|----||      |-3-2-3-5-2-3--2--2--2--2--||
Eb|----||      |--------------0--0--0--0--||
  |    ||      |                          ||
  | Em ||      |                          ||
eb|-0--||      |--------------------------||
Bb|-0--||      |--------------------------||
Gb|-0--||      |--------------------------||
Db|-2--||      |-5-4-5-7-2-3--------------||
Ab|-2--||      |-3-2-3-5-2-3--2--2--2--2--||
Eb|-0--||      |--------------0--0--0--0--||
   

VERSE 2 [same as verse one]

CHORUS 2

eb|----------------------||
Bb|----------------------||
Gb|----------------------||
Db|-2~-------------------||
Ab|-0~-------------------||
Eb|----------------------||
  |                      ||
  | Am    Dm    G    Em  ||
eb|-0-----1-----3----0---||
Bb|-1-----3-----3----0---||
Gb|-2-----2-----0----0---||
Db|-2-----0-----0----2---||
Ab|-0-----------2----2---||
Eb|-------------3----0---||


eb|-5-----------1-------3---0--------||
Bb|---5---5---3---3---3---3---0---0--||
Gb|-----5---2-------0-----------0----||
Db|----------------------------------|| \
Ab|----------------------------------||  \
Eb|----------------------------------||   \
  |                                  ||    play 3x
  | Am      Dm      G       Em       ||   /
eb|----------------------------------||  /
Bb|----------------------------------|| /
Gb|----------------------------------||
Db|----------------------------------||
Ab|----------------------------------||
Eb|----------------------------------||


eb|-12-12-12-12-13-13-13-13-15-15-15-15-10-10-10-10--||
Bb|-13-13-13-13-13-13-13-13-13-13-13-13-12-12-12-12--||
Gb|--------------------------------------------------||
Db|--------------------------------------------------|| \
Ab|--------------------------------------------------||  \
Eb|--------------------------------------------------||   \
  |                                                  ||    play 2x [second time end on G]
  | Am          F           C           G            ||   /
eb|--------------------------------------------------||  /
Bb|--------------------------------------------------|| /
Gb|--------------------------------------------------||
Db|--------------------------------------------------||
Ab|--------------------------------------------------||
Eb|--------------------------------------------------||


BRIGDE

eb|------------------------------------||
Bb|------------------------------------||
Gb|------------------------------------||
Db|------------------------------------|| \
Ab|-2-2222-5-2-2222-4-2-22222----------||  \
Eb|-0-0000-3-0-0000-2-0-00000-3-2-3-5--||   \
  |   ....     ....     .....          ||    play 2x
  |                                    ||   /
eb|------------------------------------||  / 
Bb|------------------------------------|| /
Gb|------------------------------------||
Db|------------------------------------||
Ab|-2-2222-5-2-2222-4-2-22222----------||
Eb|-0-0000-3-0-0000-2-0-00000-3-2-3-5--||
      ....     ....     .....

eb|-----------------------------------------------------------------------||
Bb|-----------------------------------------------------------------------||
Gb|----------------------------------------------5----------4----------5--||
Db|----------------------------------------------x----------x----------x--||
Ab|-22222222-22222222-22222222-22222222-22222222-3-22222222-2-22222222-3--|| i'm pretty sure
Eb|-00000000-00000000-00000000-00000000-00000000---00000000---00000000----|| Deryck doesn't
  |                                                                       || play anything
  |                                                                       || live but it
eb|-----------------------------------------------------------------------|| sounds better
Bb|-----------------------------------------------------------------------|| with both 
Gb|----------------------------------------------5----------4----------5--|| gutiars doing it
Db|----------------------------------------------x----------x----------x--||
Ab|-22222222-22222222-22222222-22222222-22222222-3-22222222-2-22222222-3--||
Eb|-00000000-00000000-00000000-00000000-00000000---00000000---00000000----||

eb|--------------------||
Bb|--------------------||
Gb|--------------------||
Db|--------------------||
Ab|-22222222255555555--||
Eb|-00000000033333333--||
  | ..............     ||
  |                    ||
eb|---------333333333--||
Bb|---------333333333--||
Gb|---------000000000--||
Db|---------000000000--||
Ab|-22222222222222222--||
Eb|-00000000033333333--||
  | .........          ||


CHORUS 3 [distorted]

eb|-5-----------1-------3---0--------||
Bb|---5---5---3---3---3---3---0---0--||
Gb|-----5---2-------0-----------0----||
Db|----------------------------------|| \
Ab|----------------------------------||  \
Eb|----------------------------------||   \
  |                                  ||    play 2x
  | Am      Dm      G       Em       ||   /
eb|----------------------------------||  /
Bb|----------------------------------|| /
Gb|----------------------------------||
Db|----------------------------------||
Ab|----------------------------------||
Eb|----------------------------------||

eb|-5-------7-------8-------3--------||
Bb|---5---5---5---5---5---5---3---3--||
Gb|-----5-------5-------5-------0----||
Db|----------------------------------|| \
Ab|----------------------------------||  \
Eb|----------------------------------||   \
  |                                  ||    play 4x
  | Am      F       C       G        ||   /
eb|----------------------------------||  /
Bb|----------------------------------|| /
Gb|----------------------------------||
Db|----------------------------------||
Ab|----------------------------------||
Eb|----------------------------------||


OUTRO

eb|----------------------||
Bb|----------------------||
Gb|----------------------||
Db|-2~-------------------||
Ab|-0~-------------------||
Eb|----------------------||
  |                      ||
  | Am    Dm    G    Em  ||
eb|-0-----1-----3----0---||
Bb|-1-----3-----3----0---||
Gb|-2-----2-----0----0---||
Db|-2-----0-----0----2---||
Ab|-0-----------2----2---||
Eb|-------------3----0---||


eb|-5-----------1-------3---0--------||
Bb|---5---5---3---3---3---3---0---0--||
Gb|-----5---2-------0-----------0----||
Db|----------------------------------|| \
Ab|----------------------------------||  \
Eb|----------------------------------||   \
  |                                  ||    play 3x
  | Am      Dm      G       Em       ||   /
eb|----------------------------------||  /
Bb|----------------------------------|| /
Gb|----------------------------------||
Db|----------------------------------||
Ab|----------------------------------||
Eb|----------------------------------||

eb|-----||
Bb|-----||
Gb|-----||
Db|-2~--||
Ab|-0~--||
Eb|-----||
  |     ||
  | Am~ ||
eb|-0---||
Bb|-1---||
Gb|-2---||
Db|-2---||
Ab|-0---||
Eb|-----||

so that's all !.. hate mail at.. oskr__mdo14@hotmail.com   =)

            
            
Suggest correction
Creating personal tab
Creating personal tab
You can edit any tab online and save it as your Personal.

You can edit, replace or remove any tab part or add personal notes – all changes will be seen only by you.

Personal tabs can be accessed anytime from any device, even offline.
Learn more »
comments
print report bad tab
2 comments total.
0 reply
Tomozaurus 230 Mar 27, 2010 07:51 PM

Excellent work. Probably the best tab on the site.

0 reply
spivs1020 143 May 07, 2010 05:01 PM

100% perfect. thank you very much

guest
You may want to rate the tab now too:
select rating
Wanna post a correction for this tab? Suggest correction