Oops, an error
Loading. Please wait.

With Me Tab

version 1
154,611 views 39 this week
6 commentsread comments
1 2 3 4 5
x 18
add to favorites
launch autoscroll
font size
0
reset
how to read this tab
guitar tuner
Autoscroll
slow
fast
+/-
esc
set tempo
stop
Help us to improve Ultimate-Guitar.com Take our survey!
×
[Intro/Verse]
(Guitar 1)
E|--------------0----------------0----------|
B|------------------------------------------|
G|--------4----------------4--------4-------|
D|--2--2-----2------------------------------|
A|-------------------2--2-----2-------------|
E|------------------------------------------|

E|--------------0----------------------------|
B|-------------------------------4--5--------|
G|--------4----------------4-----------4-----|
D|-------------------------------------------|
A|--4--4-----4-------0--0-----0--------------|
E|-------------------------------------------|

(Guitar 2)
E|-----------------------------------------------------|
B|-----------------------------------------------------|
G|-99-9-99-xxxx-99-9-99-xxxx-99-9-99-xxxx-99-9-99-xxxx-|
D|-99-9-99-xxxx-99-9-99-xxxx-99-9-99-xxxx-99-9-99-xxxx-|
A|-77-7-77-xxxx-xx-x-xx-xxxx-xx-x-xx-xxxx-00-0-00-xxxx-|
E|-xx-x-xx-xxxx-77-7-77-xxxx-99-9-99-xxxx-xx-x-xx-xxxx-|

(Guitar 3)
E|-12--11--9--7----12--11--9--7----12------12--11--|
B|-------------------------------------12----------|
G|-------------------------------------------------|
D|-------------------------------------------------|
A|-------------------------------------------------|
E|-------------------------------------------------|

[Chorus]
E|--------------------------------------------------------|
B|--------------------------------------------------------|
G|-6----2---------4--5----6----2---------4--5----6--------|
D|-6----2----2----4--x----4----2----2----4--x----x----7---|
A|-4----0----2----2--3----4----0----2----2--3----4----x---|
E|-----------0----------------------0-----------------5---|

[Bridge]
(Guitar 1)
E|-------------0----------------0-----------------------|
B|------------------------------------------------------|
G|-------4----------------4-----------------------------|
D|-2--2-----2-------2--2-----2--------------------------|
A|------------------------------------------------------|
E|------------------------------------------------------|

(Guitar 2)
E|------------------------------------------------------|
B|------------------------------------------------------|
G|--9-9---9---9-9---------------------------------------|
D|--x-x---x---x-x---------------------------------------| (x2)
A|--7-7---7---7-7---------------------------------------|
E|------------------------------------------------------|

(Palm Muted Chorus Part)
E|------------------------|
B|------------------------|
G|------------------------|
D|-6----2---------4-------|
A|-4----0----2----2-------|
E|-----------0------------|

[Hook]
(Guitar 1)
E|-------------------------------|-----------------------|
B|-------------------------------|-----------------------|
G|--2---------4----6--4----------|-----------------------|
D|--2----2----4----6--4---(x4)---|---2~------------------|
A|--0----2----2----4--2----------|---2~------------------|
E|-------0-----------------------|---0~------------------|

(Guitar 2)
E|--------------------------------------------------------------------|
B|--------------------------------------------------------------------|
G|--99999899999999999899991188888888881113131313131311131311----------|
D|--xxxxxxxxxxxxxxxxxxxxxxxxxxxxxxxxxxxxxxxxxxxxxxxxxxxxxxxx—(x4)-----|
A|--77777677777777777677779966666666669911111111111199111199----------|
E|--------------------------------------------------------------------|

[Outro]
E|----------------------|
B|----------------------|
G|----------------------|
D|--2~------------------|
A|--x-------------------|
E|--0~------------------|


************************************

| x  Dead note
| ~  Vibrato

************************************
Suggest correction
comments
print report bad tab
6 comments total. Showing first comments.
-1 reply
yamaha182 302 Aug 14, 2007 02:04 PM

hmmm missing parts, wrong, the other tab's better

0 reply
yamaha182 302 Aug 14, 2007 03:50 PM

Piano Part
(Guitar)
E|-14-14-11(11)----14-14-11(11)----14-14-11(11)----14-14-11(11)----14-14-11(11)--------|
B|-------------14--------------12--------------14--------------12--------------14--12~~|
G|-------------------------------------------------------------------------------------|
D|-------------------------------------------------------------------------------------|
A|-------------------------------------------------------------------------------------|
E|-------------------------------------------------------------------------------------|

+1 reply
HFR 10 Apr 01, 2008 12:36 AM

Thanks that was real Helpfull :)

guest
You may want to rate the tab now too:
select rating
Wanna post a correction for this tab? Suggest correction