Oops, an error
Loading. Please wait.

With Me Tab

version 2
419,541 views 426 this week
36 commentsread comments
1 2 3 4 5
excellent!
x 94
add to favorites
launch autoscroll
font size
0
reset
how to read this tab
guitar tuner
Tab Pro tools
  • play this tab
  • loop segment
  • change instrument
  • show fretboard
  • metronome
×
Best way to learn
"With Me"
Autoscroll
slow
fast
+/-
esc
set tempo
stop
Contributor
----------------------------------------------------------------------------
                             With Me - Sum 41
----------------------------------------------------------------------------

Guitar I - (EADGBe) "Rhythm"
Guitar II - (EADGBe) "Lead"
Guitar III - (EADGBe) "Intro Lead"


The second guitar in the choruses is very hard to hear, so I haven't worked it all out 
That's the only thing missing, I believe. If you have any corrections or suggestions, 
leave a comment. Thank you!


Intro/Verse:

Guitar I:
E|----------------------0~-|--------------------0-------------|
B|-------------------------|----------------------------------|
G|-----------4-------------|-----------4------------4~--------|
D|-2-2-------------2-------|----------------------------------|
A|-------------------------|-2-2----------2-------------------|
E|-------------------------|----------------------------------|

E|----------------------0~-|----------------------------------|
B|-------------------------|----------------------4---5-------|
G|------------4------------|------------4-----------------4~--|
D|-------------------------|----------------------------------| x8
A|-4-4-------------4-------|-0-0------------0-----------------|
E|-------------------------|----------------------------------|

Guitar II:
E|---------|----------|--44-4-44-|-----------|
B|-00-0-00-|--22-2-22-|--55-5-55-|--00-0-00--|
G|-11-1-11-|--44-4-44-|--66-6-66-|--22-2-22--|
D|-22-2-22-|--44-4-44-|--66-6-66-|--22-2-22--|
A|-22-2-22-|--22-2-22-|--44-4-44-|--00-0-00--|
E|-00-0-00-|----------|----------|-----------|

Guitar III:
E|-12~--11~---------------12~----11~-----------------12~---------12~--11~--|
B|-----------14~----12~----------------14~-----12~---------12~-------------|
G|-------------------------------------------------------------------------|
D|-------------------------------------------------------------------------|
A|-------------------------------------------------------------------------|
E|-------------------------------------------------------------------------|


Chorus:

Guitars I and II:
E|------------------------------------------------------------|
B|------------------------------------------------------------|
G|-66666666---------------------------44444444--55555555------|
D|-66666666--77777777-----22222222----44444444--66666666------|
A|-44444444--77777777-----22222222----22222222--33333333------|
E|-----------55555555-----00000000----------------------------|

E|-------------------------------------------------------------------------|
B|-------------------------------------------------------------------------|
G|-66666666-------------------44444444-55555555-66666666-------------------|
D|-66666666-77777777-22222222-44444444-66666666-66666666-77777777:---------|
A|-44444444-77777777-22222222-22222222-33333333-44444444-77777777:---------|
E|----------55555555-00000000----------------------------55555555:---------|

Verse:

Guitar I:
e|----------------------0~-|--------------------0-------------|
B|-------------------------|----------------------------------|
G|-----------4-------------|-----------4------------4~--------|
D|-2----2----------2-------|-2-----2------2-------------------|
A|-------------------------|----------------------------------|
E|-------------------------|----------------------------------|

e|----------------------0~-|--------------------0-------------|
B|-------------------------|----------------------------------|
G|-----------4-------------|-----------4------------4~--------|
D|-2----2----------2-------|----------------------------------|
A|-------------------------|-2-----2------2-------------------|
E|-------------------------|----------------------------------|\
                                                                |
e|----------------------0~-|----------------------------------|----| x4
B|-------------------------|----------------------4---5------------|
G|------------4------------|------------4-----------------4~-------|
D|-------------------------|---------------------------------------|
A|-4-----4---------4-------|-0-----0--------0----------------------|
E|-------------------------|---------------------------------------|


Pre-Chorus:


Guitar II:
e|----------------------0~-|--------------------0-------------|
B|-------------------------|----------------------------------|
G|-----------4-------------|-----------4------------4~--------|
D|-2----2----------2-------|----------------------------------|
A|-------------------------|-2-----2------2-------------------|
E|-------------------------|----------------------------------|

e|----------------------0~-|----------------------------------|
B|-------------------------|----------------------4---5-------|
G|------------4------------|------------4-----------------4~--|
D|-------------------------|----------------------------------|
A|-4-----4---------4-------|-0-----0--------0-----------------|
E|-------------------------|----------------------------------|


Guitar I:
e|----------------------------------------------------|
B|----------------------------------------------------|
G|-66666666----22222222----------------44444444-------|
D|-66666666----22222222----22222222----44444444-------|
A|-44444444----00000000----22222222----22222222-------|
E|-------------------------00000000-------------------|
PM ........    ........    ........    ........

Chorus:


Guitars I and II:
e|------------------------------------------------------------|
B|------------------------------------------------------------|
G|-66666666---------------------------44444444--55555555------|
D|-66666666--77777777-----22222222----44444444--66666666------|
A|-44444444--77777777-----22222222----22222222--33333333------|
E|-----------55555555-----00000000----------------------------|

e|-------------------------------------------------------------------------|
B|-------------------------------------------------------------------------|
G|-66666666-------------------44444444-55555555-66666666-------------------|
D|-66666666-77777777-22222222-44444444-66666666-66666666-77777777:---------|
A|-44444444-77777777-22222222-22222222-33333333-44444444-77777777:---------|
E|----------55555555-00000000----------------------------55555555:---------|


Bridge:

Doesn't matter which guitar plays this:
e|------------|
B|------------|
G|------------|
D|-xx-xx------|
A|-xx-xx------|
E|-xx-xx------|


Guitar I:
e|---------------------------------------------------------------|
B|---------------------------------------------------------------|
G|------------------------44-4-44:---6666666---44444444----------|
D|--77-7-77:---22-2-22:---44-4-44:---6666666---44444444----------|
A|--77-7-77:---22-2-22:---22-2-22:---4444444---22222222----------|
E|--55-5-55:---00-0-00:------------------------------------------|

e|-------------------------------------------------------|
B|-------------------------------------------------------|
G|----------------------44444444---66666666--44444444----|
D|--77777777-22222222---44444444---66666666--44444444----|
A|--77777777-22222222---22222222---44444444--22222222----|
E|--55555555-00000000------------------------------------|

e|---------------------------------------------------------------|
B|---------------------------------------------------------------|
G|------------------------44-4-44:---6666666---44444444----------|
D|--77-7-77:---22-2-22:---44-4-44:---6666666---44444444----------|
A|--77-7-77:---22-2-22:---22-2-22:---4444444---22222222----------|
E|--55-5-55:---00-0-00:------------------------------------------|

e|-------------------------------------------------------|
B|-------------------------------------------------------|
G|----------------------44444444---66666666--44444444----|
D|--77777777-22222222---44444444---66666666--44444444----|
A|--77777777-22222222---22222222---44444444--22222222----|
E|--55555555-00000000------------------------------------|


Guitar II:
e|----------------------------------------------------------------------|
B|----------------------------------------------------------------------|
G|--9-9-9-9-9/8\9-9-9-9-9-9-9-9-9-9-9/8\9-9-9-9/11-8-8-8-8-8-8-8-8-8-8--|
D|----------------------------------------------------------------------|
A|--7-7-7-7-7/6\7-7-7-7-7-7-7-7-7-7-7/6\7-7-7-7/9--6-6-6-6-6-6-6-6-6-6--|
E|----------------------------------------------------------------------|

e|------------------------------------------------|
B|------------------------------------------------|
G|-8888888888--11--13-13-13-13-11/13\11--9--------|
D|------------------------------------------------|x4
A|-6666666666--9---11-11-11-11--9/11\9---7--------|
E|------------------------------------------------|


Pre-Chorus:

Guitar I:
e|----------------------0~-|--------------------0-------------|
B|-------------------------|----------------------------------|
G|-----------4-------------|-----------4------------4~--------|
D|-2----2----------2-------|-2-----2------2-------------------|
A|-------------------------|----------------------------------|
E|-------------------------|----------------------------------|


e|----------------------0~-|--------------------0-------------|
B|-------------------------|----------------------------------|
G|-----------4-------------|-----------4------------4~--------|
D|-2----2----------2-------|----------------------------------|
A|-------------------------|-2-----2------2-------------------|
E|-------------------------|----------------------------------|\
                                                                |
e|----------------------0~-|----------------------------------|----| x4
B|-------------------------|----------------------4---5------------|
G|------------4------------|------------4-----------------4~-------|
D|-------------------------|---------------------------------------|
A|-4-----4---------4-------|-0-----0--------0----------------------|
E|-------------------------|---------------------------------------|

Chorus:

Guitars I and II:
e|------------------------------------------------------------|
B|------------------------------------------------------------|
G|-66666666---------------------------44444444--55555555------|
D|-66666666--77777777-----22222222----44444444--66666666------|
A|-44444444--77777777-----22222222----22222222--33333333------|
E|-----------55555555-----00000000----------------------------|

e|-------------------------------------------------------------------------|
B|-------------------------------------------------------------------------|
G|-66666666-------------------44444444-55555555-66666666-------------------|
D|-66666666-77777777-22222222-44444444-66666666-66666666-77777777-xx-xx----|
A|-44444444-77777777-22222222-22222222-33333333-44444444-77777777-xx-xx----|
E|----------55555555-00000000----------------------------55555555-xx-xx----|

e|------------------------------------------------------------|
B|------------------------------------------------------------|
G|-66666666---------------------------44444444--55555555------|
D|-66666666--77777777-----22222222----44444444--66666666------|
A|-44444444--77777777-----22222222----22222222--33333333------|
E|-----------55555555-----00000000----------------------------|

e|-------------------------------------------------------------------------|
B|-------------------------------------------------------------------------|
G|-66666666-------------------44444444-55555555-66666666-------------------|
D|-66666666-77777777-22222222-44444444-66666666-66666666-77777777----------|
A|-44444444-77777777-22222222-22222222-33333333-44444444-77777777----------|
E|----------55555555-00000000----------------------------55555555----------|

End on:

Guitars I and II:
e|--------|
B|--------|
G|--------|
D|---2~---|
A|---2~---|
E|---0~---|

| :  rest (stop the note/chord from ringing)
| .  palm mute note
| /  slide up
| \  slide down
| h  hammer-on
| p  pull-off
| ~  vibrato/let note ring out
| +  harmonic
| x  Mute note
============================================================================
comments
print report bad tab
36 comments total. Showing first comments.
0 reply
Sumlover41 wrote on July 22 2007, 01:33 pm

This tab rocks!!
Thanks alot!

0 reply
Vega.W_92 wrote on July 25 2007, 04:38 am

MAN THIS TAB IS AWESOME
great work!
please tell me you could tab it in guitar pro:D

0 reply
kiefermatot wrote on July 26 2007, 12:09 am

Thanks! Yes, I could upload this in Guitar Pro format if you would like.

I want to post or [tab]
guest
You may want to rate the tab now too:
select rating
Please do not post tabs as comments. Select "correction" instead!