Oops, an error
Loading. Please wait.
We have Chord Pro version of With Me.
It's the closest thing you can get to the original song and it has interactive parts. Check out the tab »
×
by Sum 41
214,070 views 9 this week
1 commentread comment
1 2 3 4 5
x 8
add to favorites
×
Save as Personal and add changes to this tab that will be seen only by you. Learn more ›
×
You can save this tab as Personal to edit and correct it or add notes. All changes will be seen only by you. Learn more »
launch autoscroll
font size
0
reset
how to read this tab
guitar tuner
backing track
0:00
0:00
edit
Autoscroll
slow
fast
+/-
esc
set tempo
stop
Author
Difficulty
-------------------------------------------------------------------------------
                             With Me – SUM 41
-------------------------------------------------------------------------------
Tabbed by: BlinkRIP
Email:Gavinistheman321@aol.com

Tuning: standard
Intro/verse (Guitar 1)
e|---------------------------------------------------------------------|
B|---------------------------------------------------------------------|
G|------9-------------9-----------9-----------9------------------------|
D|----9-----9-------9-----9-----9-----9-----9-----9--------------------|
A|-7------7----7--------------------------0-----0----------------------|
E|---------------7------7---7-9-----9---9------------------------------|
(Guitar 2)
e|---------------------------------------------------------------------|
B|---------------------------------------------------------------------|
G|-99-99-99—-99-99-99—-99-99-99—-99-99-99------------------------------|
D|-99-99-99—-99-99-99—-99-99-99—-99-99-99------------------------------|
A|-77-77-77—-xx-xx-xx—-xx-xx-xx--00-00-00------------------------------|
E|-----------77-77-77—-99-99-99----------------------------------------|
Interlude
( through it all...
e|----------------------------------------------------------------------|
B|4-44-44-44-44444--2-22-22-22-22222------------------------------------|
G|6-66-66-66-66666—-2-22-22-22-22222—-1-11-11-11-11111-4-44-44-44-44444-|
D|6-66-66-66-66666—-2-22-22-22-22222—-2-22-22-22-22222-4-44-44-44-44444-|
A|4-44-44-44-44444—-0-00-00-00-00000--2-22-22-22-22222—2-22-22-22-22222-|
E|----------------------------------------------------------------------|
Chorus
e|---------------------------------------------------------------------|
B|---------------------------------------------------------------------|
G|-66666666----------------------44444444--55555555—-666666666---------|
D|-66666666--77777777--22222222--44444444--66666666—-666666666---------|
A|-44444444--77777777--22222222--22222222--33333333--444444444---------|
E|-----------55555555--00000000----------------------------------------|

e|---------------------------------------------------------------------|
B|---------------------------------------------------------------------|
G|----------------------444444444—-5555555555--666666666---------------|
D|777777777—-222222222—-444444444--6666666666—-666666666--7777777777---|
A|777777777--222222222—-222222222--3333333333—-444444444--7777777777---|
E|555555555—-000000000------------------------------------5555555555---|

Bridge
e|----------------------------------------------------------------------|
B|----------------------------------------------------------------------|
G|----------------44444:--66666666-44444444-----------------------------|
D|77777:—-22222:—-44444:--66666666-44444444-----------------------------|
A|77777:—-22222:—-22222:--44444444-22222222-----------------------------|
E|55555:—-00000:--------------------------------------------------------|

Intro/verse x4
Interlude x1
Chorus x1
Verse x4
Chorus x2
Bridge x4
Verse x1
Chorus x2
| /  slide up
| \  slide down
| h  hammer-on
| p  pull-off
| ~  vibrato
| +  harmonic
| x  Mute note
===============================================================================

            
            
Suggest correction
Creating personal tab
Creating personal tab
You can edit any tab online and save it as your Personal.

You can edit, replace or remove any tab part or add personal notes – all changes will be seen only by you.

Personal tabs can be accessed anytime from any device, even offline.
Learn more »
comments
print report bad tab
1 comment total.
0 reply
Rob7 20 Feb 21, 2008 08:09 AM

thats n great tab
this is the only tab who is like sum 41 the song play
But i think this sounds a little bit better
in the Chorus

Chorus
e|---------------------------------------------------------------------|
B|---------------------------------------------------------------------|
G|-66666666----------------------44444444--55555555—-666666666---------|
D|-66666666--77777777--22222222--44444444--55555555—-666666666---------|
A|-44444444--77777777--22222222--22222222--33333333--444444444---------|
E|-----------55555555--00000000----------------------------------------|

e|---------------------------------------------------------------------|
B|---------------------------------------------------------------------|
G|----------------------444444444—-5555555555--666666666---------------|
D|777777777—-222222222—-444444444--5555555555—-666666666--7777777777---|
A|777777777--222222222—-222222222--3333333333—-444444444--7777777777---|
E|555555555—-000000000------------------------------------5555555555---|

guest
You may want to rate the tab now too:
select rating
Wanna post a correction for this tab? Suggest correction