Oops, an error
Loading. Please wait.

With Me Tab

version 4
43,889 views 6 this week
4 commentsread comments
1 2 3 4 5
x 8
add to favorites
launch autoscroll
font size
0
reset
how to read this tab
guitar tuner
Autoscroll
slow
fast
+/-
esc
set tempo
stop
Help us to improve Ultimate-Guitar.com Take our survey!
×
TABBED BY eldoplaysguitar

 With me sum 41
 intro (plays through the song)
 e---------------------------------------------]
 B-55-----5--55-----5----55------5---------4-5-]
 G-44-4------44-4-----4--44-4----------4------4]
 D-22---2----xx----------xx--------------------] x2
 A-----------22---2------44---4-----00---0-----]
 E---------------------------------------------]


 with lyrics

 e---------------------------------------------]
 B-55-----5--55-----5----55------5---------4-5-]
 G-44-4------44-4-----4--44-4----------4------4]
 D-22---2----xx----------xx--------------------] x2
 A-----------22---2------44---4-----00---0-----]
 E---------------------------------------------]

 little guitar break

 e--12~-11~-9~-7~-----]
 B--------------------]
 G--------------------]
 D--------------------]
 A--------------------]
 E--------------------]

 chourus

 e-----------------------------------]
 B-----------------------------------]
 G-666666----------------------------]
 D-666666--777777--222222--444--666--] x2
 A-444444--777777--222222--444--666--]
 E---------555555--000000--222--444--]


 e-----------------------------------------------]
 B-55-----5--55-----5----55------5---------4-5---]
 G-44-4------44-4-----4--44-4----------4------4--]
 D-22---2----xx----------xx----------------------] x4
 A-----------22---2------44---4-----00---0-------]
 E---------------------------------------------- ]

 add that as a bass note every time the intro riff is reapeated
 listen to the song and you will get it.
 e--------]
 B--------]
 D--------]
 G--------]
 A--------]
 E---0----]

 e-----------------------------------]
 B-----------------------------------]
 G-666666----------------------------]
 D-666666--777777--222222--444--666--]
 A-444444--777777--222222--444--666--]
 E---------555555--000000--222--444--]
pm....................................


 chourus

 e-----------------------------------]
 B-----------------------------------]
 G-666666----------------------------]
 D-666666--777777--222222--444--666--] x2
 A-444444--777777--222222--444--666--]
 E---------555555--000000--222--444--]


 e-14-14-11-9-14-14-11-7-------------------|
 B-----------------------------------------|
 G-----------------------------------------|
 D-----------------------------------------|
 A-----------------------------------------|
 E-----------------------------------------|
Suggest correction
comments
print report bad tab
4 comments total. Showing first comments.
+3 reply
eldoplaysguitar 347 Nov 29, 2007 12:14 AM

THE BEAST TAB EVER LOL

+3 reply
eldoplaysguitar 347 Nov 29, 2007 12:14 AM

i mean the BEST

+2 reply
alexhockey 10 Apr 13, 2008 01:14 AM

yea i have to agree with you there

guest
You may want to rate the tab now too:
select rating
Wanna post a correction for this tab? Suggest correction