Oops, an error
Loading. Please wait.

With Me Tab

version 6
25,374 views 60 this week
2 commentsread comments
1 2 3 4 5
x 4
add to favorites
launch autoscroll
font size
0
reset
how to read this tab
guitar tuner
Autoscroll
slow
fast
+/-
esc
set tempo
stop
Help us to improve Ultimate-Guitar.com Take our survey!
×
Author
Q ondaa...puees a continucion jaja...lez dejoo una cansion
que es la favoritaa de mi noviaa, waaa
que por ella la conosi y la quise sacar en la guitarra :)
se las dejoo, eszpero y les guste :)



SUM 41 - WITH ME


Guitar 1
Guitar 2


Intro [0:00-0:17]

Guitar 1
e|----------------------------------------------------|
B|----------------------------------------------------|
G|----99999999----44444444----66666666----22222222----|
D|----99999999----44444444----66666666----22222222----|
A|----77777777----22222222----44444444----00000000----|
E|----------------------------------------------------|

Guitar 2
e|----------------------------------------------------|
B|-----------5-----------5-----------5-----------4-5--|
G|-------4-----------4----4------4-----------4------4-|
D|----22---2------------------------------------------|
A|----------------22---2------44---4------00---0------|
E|----------------------------------------------------|


Verso 1 [0:17-0:55]

Guitar 1
e|----------------------------------------------------|x5
B|----------------------------------------------------|
G|----99999999----44444444----66666666----22222222----|
D|----99999999----44444444----66666666----22222222----|
A|----77777777----22222222----44444444----00000000----|
E|----------------------------------------------------|

Guitar 2
e|----------------------------------------------------|x5
B|-----------5-----------5-----------5-----------4-5--|
G|-------4-----------4----4------4-----------4------4-|
D|----22---2------------------------------------------|
A|----------------22---2------44---4------00---0------|
E|----------------------------------------------------|


Chorus [0:56-1:17]

Guitar 1 & 2
e|-----------------------------------------------------|
B|-----------------------------------------------------|
G|----66666666----------------------------44444/555----|
D|----66666666----77777777----22222222----44444/555----|
A|----44444444----77777777----22222222----22222/333----|
E|----------------55555555----00000000-----------------|

Guitar 1 & 2
e|-----------------------------------------------------|
B|-----------------------------------------------------|
G|----66666666----------------------------44444/555----|
D|----66666666----77777777----22222222----44444/555----|
A|----44444444----77777777----22222222----22222/333----|
E|----------------55555555----00000000-----------------|

Guitar 1 & 2
e|-------------------------| 
B|-------------------------| 
G|----66666666-------------| 
D|----66666666----77777----| 
A|----44444444----77777----| 
E|----------------55555----| 



Other [1:18-1:30]

Guitar 1                        Guitar 2
e|---------------------------| |----------------------------|
B|---------------------------| |-----------5-----------5----|
G|----99999999----99999999---| |-------4-----------4-----4--|
D|----99999999----99999999---| |----22---2------------------|
A|----77777777----77777777---| |----------------22---2------|
E|---------------------------| |----------------------------|

Guitar 1
e|----------------------------------------------------|
B|----------------------------------------------------|
G|----99999999----44444444----66666666----22222222----|
D|----99999999----44444444----66666666----22222222----|
A|----77777777----22222222----44444444----00000000----|
E|----------------------------------------------------|

Guitar 2
e|----------------------------------------------------|
B|-----------5-----------5-----------5-----------4-5--|
G|-------4-----------4----4------4-----------4------4-|
D|----22---2------------------------------------------|
A|----------------22---2------44---4------00---0------|
E|----------------------------------------------------|


Verso 2 [1:31-2:10]

Guitar 1
e|----------------------------------------------------|x4
B|----------------------------------------------------|
G|----99999999----44444444----66666666----22222222----|
D|----99999999----44444444----66666666----22222222----|
A|----77777777----22222222----44444444----00000000----|
E|----------------------------------------------------|

Guitar 2
e|----------------------------------------------------|x4
B|-----------5-----------5-----------5-----------4-5--|
G|-------4-----------4----4------4-----------4------4-|
D|----22---2------------------------------------------|
A|----------------22---2------44---4------00---0------|
E|----------------------------------------------------|

Guitar 1
e|----------------------------------------------------|
B|----------------------------------------------------|
G|----99999999----44444444----66666666----22222222----|
D|----99999999----44444444----66666666----22222222----|
A|----77777777----22222222----44444444----00000000----|
E|----------------------------------------------------|

Guitar 2
E|----------------------------------------------------|
B|----------------------------------------------------|
G|----------------------------------------------------|
D|----------------------------------------------------|
A|----44444444----------------------------22222223----|
E|----------------55555555----00000000----------------|
    PM............................................


Chorus [2:11-2:32]

Guitar 1 & 2
e|-----------------------------------------------------|
B|-----------------------------------------------------|
G|----66666666----------------------------44444/555----|
D|----66666666----77777777----22222222----44444/555----|
A|----44444444----77777777----22222222----22222/333----|
E|----------------55555555----00000000-----------------|

Guitar 1 & 2
e|-----------------------------------------------------|
B|-----------------------------------------------------|
G|----66666666----------------------------44444/555----|
D|----66666666----77777777----22222222----44444/555----|
A|----44444444----77777777----22222222----22222/333----|
E|----------------55555555----00000000-----------------|

Guitar 1 & 2
e|-------------------------| 
B|-------------------------| 
G|----66666666-------------| 
D|----66666666----77777----| 
A|----44444444----77777----| 
E|----------------55555----| 


Other [2:32-2:36]

Guitar 1 & 2                    
e|----------------------------------|
B|----------------------------------| 
G|----99999999----99999999----xxxxxx| 
D|----99999999----99999999----xxxxxx| 
A|----77777777----77777777----xxxxxx| 
E|----------------------------------|


Brigde [2:37-3:09]

Guitar 1
e|--------------------------------------------------------------|x4
B|--------------------------------------------------------------|
G|------------------------44-4-44---6666666---44444444----------|
D|----77-7-77---22-2-22---44-4-44---6666666---44444444----------|
A|----77-7-77---22-2-22---22-2-22---4444444---22222222----------|
E|----55-5-55---00-0-00-----------------------------------------|

Guitar 2
e|--------------------------------------------------------------|x4
B|--------------------------------------------------------------|
G|----9999/8\9-9999999/8\9-\11/88888--9-11--13131313-11-13-13---|
D|--------------------------------------------------------------|
A|----7777/6\7-7777777/6\7--\9/66666--7--9--11111111--9-11--9---|
E|--------------------------------------------------------------|


Other [3:10-3:33]

Guitar 1
e|----------------------------------------------------|x2
B|----------------------------------------------------|
G|----99999999----44444444----66666666----22222222----|
D|----99999999----44444444----66666666----22222222----|
A|----77777777----22222222----44444444----00000000----|
E|----------------------------------------------------|

Guitar 2
e|----------------------------------------------------|x2
B|-----------5-----------5-----------5-----------4-5--|
G|-------4-----------4----4------4-----------4------4-|
D|----22---2------------------------------------------|
A|----------------22---2------44---4------00---0------|
E|----------------------------------------------------|

Guitar 1
e|---------------------------------------------|
B|---------------------------------------------|
G|----99999999----44444444----66666666----2----|
D|----99999999----44444444----66666666----0----|
A|----77777777----22222222----44444444----0----|
E|---------------------------------------------|

Guitar 2
e|-------------------------------------------------|
B|-----------5-----------5-----------5-----------4-|
G|-------4-----------4----4------4-----------4-----|
D|----22---2---------------------------------------|
A|----------------22---2------44---4------00---0---|
E|-------------------------------------------------|


Chorus [3:34-4:20]

Guitar 1 & 2
e|-----------------------------------------------------|
B|-----------------------------------------------------|
G|----66666666----------------------------44444/555----|
D|----66666666----77777777----22222222----44444/555----|
A|----44444444----77777777----22222222----22222/333----|
E|----------------55555555----00000000-----------------|

Guitar 1 & 2
e|-----------------------------------------------------|
B|-----------------------------------------------------|
G|----66666666----------------------------44444/555----|
D|----66666666----77777777----22222222----44444/555----|
A|----44444444----77777777----22222222----22222/333----|
E|----------------55555555----00000000-----------------|

Guitar 1 & 2
e|-------------------------------| 
B|-------------------------------| 
G|----66666666-------------xxxxxx| 
D|----66666666----77777----xxxxxx| 
A|----44444444----77777----xxxxxx| 
E|----------------55555----------|

Guitar 1 & 2
e|-----------------------------------------------------|
B|-----------------------------------------------------|
G|----66666666----------------------------44444/555----|
D|----66666666----77777777----22222222----44444/555----|
A|----44444444----77777777----22222222----22222/333----|
E|----------------55555555----00000000-----------------|

Guitar 1 & 2
e|-----------------------------------------------------|
B|-----------------------------------------------------|
G|----66666666----------------------------44444/555----|
D|----66666666----77777777----22222222----44444/555----|
A|----44444444----77777777----22222222----22222/333----|
E|----------------55555555----00000000-----------------|

Guitar 1 & 2
e|-------------------------| 
B|-------------------------| 
G|----66666666-------------| 
D|----66666666----77777----| 
A|----44444444----77777----|  
E|----------------55555----| 

Guitar 1      Guitar 2   
e|--------|   |--------|
B|--------|   |--------|
G|--------|   |----9~--|      The end :)
D|----2~--|   |----9~--|
A|----2~--|   |----7~--|
E|----0~--|   |--------|   




Haha...aqui se las dejoo...esperoo y le allan entendido jaja...
ya me vooi :)
todoos los Tabs de esta cancion son buenoos
la verdad usen el que quieran :)
Aww...va dedicada a mi novia gabii (Wabii) [aww menzita te amO mi amoor ♥]
Cuidenze....Baee =D
Suggest correction
comments
print report bad tab
2 comments total.
0 reply
dany3lmcr 30 Jan 19, 2010 06:54 PM

Haha...primer comentario mio xD
Cuidenzee...zpero y lez guzte la canzion
y q le entienda :P
Nooz vemoz luegoo xD
Baee :)

[Cansion dedicada para Wabii♥]

0 reply
orlandod.perez2 10 Aug 21, 2014 07:34 PM

wrong............just wrong

guest
You may want to rate the tab now too:
select rating
Wanna post a correction for this tab? Suggest correction