Oops, an error
Loading. Please wait.

With Me Tab

version 8
1,788 views 1 this week
1 commentread comment
1 2 3 4 5
2 more votes to show rating
add to favorites
launch autoscroll
font size
0
reset
how to read this tab
guitar tuner
Autoscroll
slow
fast
+/-
esc
set tempo
stop
Help us to improve Ultimate-Guitar.com Take our survey!
×
Author
-------------------------------------------------------------------------------
        With Me - Sum 41
-------------------------------------------------------------------------------

Tuning: Guitar 1 & 2 ~ Standard

 
  Guitar 1 (Lead~Acoustic)
    Intro/Verse
E|--------------0----------------------0-|
B|---------------------------------------|
G|-------4---------------------4---------|
D|-2-2-------2---------------------------|
A|-----------------------2-2-------2-----|
E|---------------------------------------|  \
                                             x8
E|--------------0--------------------------|/
B|-----------------------------------4-5---|
G|-------4---------------------4---------4-| 
D|-----------------------------------------|
A|-4-4-------4-----------0-0-------0-------|
E|-----------------------------------------|


  Guitar 2 (Rhythm~Acoustic)
    Intro/Verse
E|-0-0---0---0-0--0--0---0-0---0---0-0--0--0-|
B|-0-0---0---0-0--0--0---0-0---0---0-0--0--0-|
G|-9-9---9---9-9--9--9---9-9---9---9-9--9--9-|
D|-9-9---9---9-9--9--9---9-9---9---9-9--9--9-|
A|-7-7---7---7-7--7--7---x-x---x---x-x--x--x-|
E|-x-x---x---x-x--x--x---7-7---7---7-7--7--7-|\
                                               x8
E|-0-0---0---0-0--0--0---0-0---0---0-0--0--0-|/
B|-0-0---0---0-0--0--0---0-0---0---0-0--0--0-|
G|-9-9---9---9-9--9--9---9-9---9---9-9--9--9-|
D|-9-9---9---9-9--9--9---9-9---9---9-9--9--9-|
A|-x-x---x---x-x--x--x---0-0---0---0-0--0--0-|
E|-9-9---9---9-9--9--9---x-x---x---x-x--x--x-|


  Guitar 1 (Lead~Electric)
    Chorus
E|---------------------------------------------------------------|
B|---------------------------------------------------------------|
G|-6-6-6-6-6-6-6-6-2-2-2-2-2-2-2-2---------------4-4-4-4-5-5-5-5-|
D|-6-6-6-6-6-6-6-6-2-2-2-2-2-2-2-2-2-2-2-2-2-2-2-4-4-4-4-5-5-5-5-|
A|-4-4-4-4-4-4-4-4-0-0-0-0-0-0-0-0-2-2-2-2-2-2-2-2-2-2-2-3-3-3-3-|
E|---------------------------------0-0-0-0-0-0-0-----------------|x2

E|---------------------------------|
B|---------------------------------|
G|-6-6-6-6-6-6-6-6-2-2-2-2-2-2-2-2-|
D|-6-6-6-6-6-6-6-6-2-2-2-2-2-2-2-2-|
A|-4-4-4-4-4-4-4-4-0-0-0-0-0-0-0-0-|
E|---------------------------------|


  Guitar 1 (Lead~Acoustic)
    Verse
E|--------------0----------------------0-|
B|---------------------------------------|
G|-------4---------------------4---------|
D|-2-2-------2---------------------------|
A|-----------------------2-2-------2-----|
E|---------------------------------------|  \
                                             x4
E|--------------0--------------------------|/
B|-----------------------------------4-5---|
G|-------4---------------------4---------4-| 
D|-----------------------------------------|
A|-4-4-------4-----------0-0-------0-------|
E|-----------------------------------------|


  Guitar 2 (Rhythm~Acoustic)
    Verse
E|-0-0---0---0-0--0--0---0-0---0---0-0--0--0-|
B|-0-0---0---0-0--0--0---0-0---0---0-0--0--0-|
G|-9-9---9---9-9--9--9---9-9---9---9-9--9--9-|
D|-9-9---9---9-9--9--9---9-9---9---9-9--9--9-|
A|-7-7---7---7-7--7--7---7-7---7---7-7--7--7-|
E|-x-x---x---x-x--x--x---x-x---x---x-x--x--x-|

E|-0-0---0---0-0--0--0---0-0---0---0-0--0--0-|
B|-0-0---0---0-0--0--0---0-0---0---0-0--0--0-|
G|-9-9---9---9-9--9--9---9-9---9---9-9--9--9-|
D|-9-9---9---9-9--9--9---9-9---9---9-9--9--9-|
A|-7-7---7---7-7--7--7---x-x---x---x-x--x--x-|
E|-x-x---x---x-x--x--x---7-7---7---7-7--7--7-|\
                                               x5
E|-0-0---0---0-0--0--0---0-0---0---0-0--0--0-|/
B|-0-0---0---0-0--0--0---0-0---0---0-0--0--0-|
G|-9-9---9---9-9--9--9---9-9---9---9-9--9--9-|
D|-9-9---9---9-9--9--9---9-9---9---9-9--9--9-|
A|-x-x---x---x-x--x--x---0-0---0---0-0--0--0-|
E|-9-9---9---9-9--9--9---x-x---x---x-x--x--x-|


  Guitar 1 (Lead~Electric)
    Pre-Chorus
E|-----------------------------------------------------------------|
B|-----------------------------------------------------------------|
G|-6-6-6-6-6-6-6-6-2-2-2-2-2-2-2-2-----------------4-4-4-4-4-4-4-4-|
D|-6-6-6-6-6-6-6-6-2-2-2-2-2-2-2-2-2-2-2-2-2-2-2-2-4-4-4-4-4-4-4-4-|
A|-4-4-4-4-4-4-4-4-0-0-0-0-0-0-0-0-2-2-2-2-2-2-2-2-2-2-2-2-2-2-2-2-|
E|---------------------------------0-0-0-0-0-0-0-0-----------------|
PM . . . . . . . . . . . . . . . . . . . . . . . . . . . . . . . .


  Guitar 2 (Rhythm~Acoustic)
    Pre-Chorus 
E|-0-0-0-0-0-0-0-0-0-0-0-0-0-0-0-0-0-0-0-0-0-0-0-0-0-0-0-0-0-0-0-0-|
B|-0-0-0-0-0-0-0-0-0-0-0-0-0-0-0-0-0-0-0-0-0-0-0-0-0-0-0-0-0-0-0-0-|
G|-9-9-9-9-9-9-9-9-9-9-9-9-9-9-9-9-9-9-9-9-9-9-9-9-9-9-9-9-9-9-9-9-|
D|-9-9-9-9-9-9-9-9-9-9-9-9-9-9-9-9-9-9-9-9-9-9-9-9-9-9-9-9-9-9-9-9-|
A|-x-x-x-x-x-x-x-x-0-0-0-0-0-0-0-0-7-7-7-7-7-7-7-7-x-x-x-x-x-x-x-x-|
E|-9-9-9-9-9-9-9-9-x-x-x-x-x-x-x-x-x-x-x-x-x-x-x-x-7-7-7-7-7-7-7-7-|


  Guitar 1 (Lead~Electric)
    Chorus
E|---------------------------------------------------------------|
B|---------------------------------------------------------------|
G|-6-6-6-6-6-6-6-6-2-2-2-2-2-2-2-2---------------4-4-4-4-5-5-5-5-|
D|-6-6-6-6-6-6-6-6-2-2-2-2-2-2-2-2-2-2-2-2-2-2-2-4-4-4-4-5-5-5-5-|
A|-4-4-4-4-4-4-4-4-0-0-0-0-0-0-0-0-2-2-2-2-2-2-2-2-2-2-2-3-3-3-3-|
E|---------------------------------0-0-0-0-0-0-0-----------------|x2

E|---------------------------------|
B|---------------------------------|
G|-6-6-6-6-6-6-6-6-2-2-2-2-2-2-2-2-|
D|-6-6-6-6-6-6-6-6-2-2-2-2-2-2-2-2-|
A|-4-4-4-4-4-4-4-4-0-0-0-0-0-0-0-0-|
E|---------------------------------|


  Guitar 2 (Rhythm~Acoustic)
    Pre-Bridge
E|-0-0---0---0-0--0--0---0-0---0---0-0--0--0-|
B|-0-0---0---0-0--0--0---0-0---0---0-0--0--0-|
G|-9-9---9---9-9--9--9---9-9---9---9-9--9--9-|
D|-9-9---9---9-9--9--9---9-9---9---9-9--9--9-|
A|-7-7---7---7-7--7--7---7-7---7---7-7--7--7-|
E|-x-x---x---x-x--x--x---x-x---x---x-x--x--x-|


  Guitar 1 + 2 (Lead&Rhythm~Electric)
    Bridge
E|---------------x-x-x-x---------------x-x-x-x---------------x-x-x-x-|
B|---------------x-x-x-x---------------x-x-x-x---------------x-x-x-x-|
G|-2-2---2---2-2-x-x-x-x---------------x-x-x-x-4-4---4---4-4-x-x-x-x-|
D|-2-2---2---2-2-x-x-x-x-2-2---2---2-2-x-x-x-x-4-4---4---4-4-x-x-x-x-|
A|-0-0---0---0-0-x-x-x-x-2-2---2---2-2-x-x-x-x-2-2---2---2-2-x-x-x-x-|
E|---------------x-x-x-x-0-0---0---0-0-x-x-x-x---------------x-x-x-x-|

E|-----------------------------------------------------------------|
B|-----------------------------------------------------------------|
G|-6-6-6-6-4-4-4-4-2-2-2-2-2-2-2-2-----------------4-4-4-4-4-4-4-4-|
D|-6-6-6-6-4-4-4-4-2-2-2-2-2-2-2-2-2-2-2-2-2-2-2-2-4-4-4-4-4-4-4-4-|
A|-4-4-4-4-2-2-2-2-0-0-0-0-0-0-0-0-2-2-2-2-2-2-2-2-2-2-2-2-2-2-2-2-|
E|---------------------------------0-0-0-0-0-0-0-0-----------------|

E|-----------------|
B|-----------------|
G|-6-6-6-6-4-4-4-4-|
D|-6-6-6-6-4-4-4-4-|
A|-4-4-4-4-2-2-2-2-|
E|-----------------|

E|---------------x-x-x-x---------------x-x-x-x---------------x-x-x-x-|
B|---------------x-x-x-x---------------x-x-x-x---------------x-x-x-x-|
G|-2-2---2---2-2-x-x-x-x---------------x-x-x-x-4-4---4---4-4-x-x-x-x-|
D|-2-2---2---2-2-x-x-x-x-2-2---2---2-2-x-x-x-x-4-4---4---4-4-x-x-x-x-|
A|-0-0---0---0-0-x-x-x-x-2-2---2---2-2-x-x-x-x-2-2---2---2-2-x-x-x-x-|
E|---------------x-x-x-x-0-0---0---0-0-x-x-x-x---------------x-x-x-x-|

E|-----------------------------------------------------------------|
B|-----------------------------------------------------------------|
G|-6-6-6-6-4-4-4-4-2-2-2-2-2-2-2-2-----------------4-4-4-4-4-4-4-4-|
D|-6-6-6-6-4-4-4-4-2-2-2-2-2-2-2-2-2-2-2-2-2-2-2-2-4-4-4-4-4-4-4-4-|
A|-4-4-4-4-2-2-2-2-0-0-0-0-0-0-0-0-2-2-2-2-2-2-2-2-2-2-2-2-2-2-2-2-|
E|---------------------------------0-0-0-0-0-0-0-0-----------------|

E|-----------------|
B|-----------------|
G|-6-6-6-6-4-6-4---|
D|-6-6-6-6-4-6-4-2-|
A|-4-4-4-4-2-4-2-2-|
E|---------------0-|


  Guitar 2 (Rhythm~Acoustic)
    Post-Bridge
E|-0-0---0---0-0--0--0---0-0---0---0-0--0--0-|
B|-0-0---0---0-0--0--0---0-0---0---0-0--0--0-|
G|-9-9---9---9-9--9--9---9-9---9---9-9--9--9-|
D|-9-9---9---9-9--9--9---9-9---9---9-9--9--9-|
A|-7-7---7---7-7--7--7---x-x---x---x-x--x--x-|
E|-x-x---x---x-x--x--x---7-7---7---7-7--7--7-|\
                                               x3
E|-0-0---0---0-0--0--0---0-0---0---0-0--0--0-|/
B|-0-0---0---0-0--0--0---0-0---0---0-0--0--0-|
G|-9-9---9---9-9--9--9---9-9---9---9-9--9--9-|
D|-9-9---9---9-9--9--9---9-9---9---9-9--9--9-|
A|-x-x---x---x-x--x--x---0-0---0---0-0--0--0-|
E|-9-9---9---9-9--9--9---x-x---x---x-x--x--x-|
          Third Time End ^


  Guitar 1 (Lead~Electric)
    Chorus
E|---------------------------------------------------------------|
B|---------------------------------------------------------------|
G|-6-6-6-6-6-6-6-6-2-2-2-2-2-2-2-2---------------4-4-4-4-5-5-5-5-|
D|-6-6-6-6-6-6-6-6-2-2-2-2-2-2-2-2-2-2-2-2-2-2-2-4-4-4-4-5-5-5-5-|
A|-4-4-4-4-4-4-4-4-0-0-0-0-0-0-0-0-2-2-2-2-2-2-2-2-2-2-2-3-3-3-3-|
E|---------------------------------0-0-0-0-0-0-0-----------------|x2

E|---------------------------------x-x-x-x-|
B|---------------------------------x-x-x-x-|
G|-6-6-6-6-6-6-6-6-2-2-2-2-2-2-2-2-x-x-x-x-|
D|-6-6-6-6-6-6-6-6-2-2-2-2-2-2-2-2-x-x-x-x-|
A|-4-4-4-4-4-4-4-4-0-0-0-0-0-0-0-0-x-x-x-x-|
E|---------------------------------x-x-x-x-|

E|---------------------------------------------------------------|
B|---------------------------------------------------------------|
G|-6-6-6-6-6-6-6-6-2-2-2-2-2-2-2-2---------------4-4-4-4-5-5-5-5-|
D|-6-6-6-6-6-6-6-6-2-2-2-2-2-2-2-2-2-2-2-2-2-2-2-4-4-4-4-5-5-5-5-|
A|-4-4-4-4-4-4-4-4-0-0-0-0-0-0-0-0-2-2-2-2-2-2-2-2-2-2-2-3-3-3-3-|
E|---------------------------------0-0-0-0-0-0-0-----------------|x2

E|-----------------------------------|
B|-----------------------------------|
G|-6-6-6-6-6-6-6-6-2-2-2-2-2-2-2-2---|
D|-6-6-6-6-6-6-6-6-2-2-2-2-2-2-2-2-2-|
A|-4-4-4-4-4-4-4-4-0-0-0-0-0-0-0-0-2-|
E|---------------------------------0-|




| /  slide up
| \  slide down
| h  hammer-on
| p  pull-off
| ~  let note ring
| +  harmonic
| x  Mute note
===============================================================================
Suggest correction
Give kudos to tab author, rate the tab!
1 2 3 4 5
comments
print report bad tab
1 comment total.
0 reply
HH_Emo_666 242 Aug 03, 2011 04:55 PM

you didn't do the actual LEAD during the bridge

guest
You may want to rate the tab now too:
select rating
Wanna post a correction for this tab? Suggest correction