Oops, an error
Loading. Please wait.

El Grito Del Coyote Tab

by Sumeria
5 views 1 this week
no commentswrite comment
1 2 3 4 5
3 more votes to show rating
add to favorites
launch autoscroll
font size
0
reset
how to read this tab
guitar tuner
×
Best way to learn
"El Grito Del Coyote"
Autoscroll
slow
fast
+/-
esc
set tempo
stop
DO#m,LA#m,SI#m

    DO#m,      LA#m,      SI#m 
I-----0-----I----0----I----0----I
I-----0-----I----0----I----0----I
I-----0-----I----0----I----0----I
I----11-----I----7----I----9----I
I----11-----I----7----I----9----I
I-----9-----I----5----I----7----I

Intro...

e|--9--11-11-11---9-9-11-11-11------
B|--9-------------9-9---------------
G|----------------------------------
D|----------------------------------
A|----------------------------------
E|----------------------------------

e|--5--7-7-7--5-5--7-7-7------------
B|--5---------5-5-------------------
G|----------------------------------
D|----------------------------------
A|----------------------------------
E|----------------------------------

e|--7--9-9-9--7-7-9-9-9-------------
B|--7---------7-7-------------------
G|----------------------------------
D|----------------------------------
A|----------------------------------
E|----------------------------------

e|--9--11-11-11---9-9-11-11-11------
B|--9-------------9-9---------------
G|----------------------------------
D|----------------------------------
A|----------------------------------
E|----------------------------------

e|--9--11-9-----------------------
B|----------11-9------------------
G|---------------11-9-------------
D|--------------------11-9--------
A|--------------------------11----
E|-----------------------------9--

e|---------------------------------------------------------------------
B|----------------------------------------------------------------------
G|----------------------------------------------------------------------
D|---11--11--11--11--11--11--11--9---7--7--7--7--7--7--7--9--7--9--9--9-
A|---11--11--11--11--11--11--11--9---7--7--7--7--7--7--7--9--7--9--9--9-
E|---9---9---9---9---9---9---9---7---5--5--5--5--5--5--5--7--5--7--7--7-

e|---------------------------------------------------------------------
B|----------------------------------------------------------------------
G|----------------------------------------------------------------------
D|---9--9--9--9--11--9--11-11-11-11-11-11-11-11-11-11-11-11-11-11-11-11-11-11-11-11-11-11-
A|---9--9--9--9--11--9--11-11-11-11-11-11-11-11-11-11-11-11-11-11-11-11-11-11-11-11-11-11-
E|---7--7--7--7--9---7--9--9--9--9--9--9--9--9--9--9--9--9--9--9--9--9--9--9--9--9--9--9--

e|---------------------------------------------------------------------
B|----------------------------------------------------------------------
G|----------------------------------------------------------------------
D|---11--11--11--11--11--11--11--9---7--7--7--7--7--7--7--9--7--9--9--9-
A|---11--11--11--11--11--11--11--9---7--7--7--7--7--7--7--9--7--9--9--9-
E|---9---9---9---9---9---9---9---7---5--5--5--5--5--5--5--7--5--7--7--7-

e|---------------------------------------------------------------------
B|----------------------------------------------------------------------
G|----------------------------------------------------------------------
D|---9--9--9--9--11--9--11-11-11-11-11-11-11-11-11-11-11-11-11-11-11-11-11-11-11-11-11-11-
A|---9--9--9--9--11--9--11-11-11-11-11-11-11-11-11-11-11-11-11-11-11-11-11-11-11-11-11-11-
E|---7--7--7--7--9---7--9--9--9--9--9--9--9--9--9--9--9--9--9--9--9--9--9--9--9--9--9--9--


              El frio,                atrae al miedo               
e|--------------------------------------------------------------------
B|--------------------------------------------------------------------
G|--------------------------------------------------------------------
D|---11--11--11--11--11--11--11--9---7--7--7--7--7--7--7--9--7--9--9--
A|---11--11--11--11--11--11--11--9---7--7--7--7--7--7--7--9--7--9--9--
E|---9---9---9---9---9---9---9---7---5--5--5--5--5--5--5--7--5--7--7--

     El sabio te da un consejo             
e|---------------------------------------------------------------------
B|----------------------------------------------------------------------
G|----------------------------------------------------------------------
D|---9--9--9--9--9--9--9--9--9--11-9--11-11-11-11-11-11-11-11-9---
A|---9--9--9--9--9--9--9--9--9--11-9--11-11-11-11-11-11-11-11-9---
E|---7--7--7--7--7--7--7--7--7--9--7--9--9--9--9--9--9--9--9--7---

             Que infieno,                 se vive aqui adentro
e|--------------------------------------------------------------------
B|--------------------------------------------------------------------
G|--------------------------------------------------------------------
D|---11--11--11--11--11--11--11--9---7--7--7--7--7--7--7--9--7--9--9--
A|---11--11--11--11--11--11--11--9---7--7--7--7--7--7--7--9--7--9--9--
E|---9---9---9---9---9---9---9---7---5--5--5--5--5--5--5--7--5--7--7--

     no temas al rugor de la llama  
e|---------------------------------------------------------------------
B|----------------------------------------------------------------------
G|----------------------------------------------------------------------
D|---9--9--9--9--9--9--9--9--9--11-9--11-11-11-11-11-11-11-11-9---
A|---9--9--9--9--9--9--9--9--9--11-9--11-11-11-11-11-11-11-11-9---
E|---7--7--7--7--7--7--7--7--7--9--7--9--9--9--9--9--9--9--9--7---

             La caldera                    se encuentra hirviendo
e|--------------------------------------------------------------------
B|--------------------------------------------------------------------
G|--------------------------------------------------------------------
D|---11--11--11--11--11--11--11--9---7--7--7--7--7--7--7--9--7--9--9--
A|---11--11--11--11--11--11--11--9---7--7--7--7--7--7--7--9--7--9--9--
E|---9---9---9---9---9---9---9---7---5--5--5--5--5--5--5--7--5--7--7--

      La cuerda ya esta puesta.....
e|-------------------------------------------------------------------------------
B|-------------------------------------------------------------------------------
G|----------------------------------------------------------9--11--9--11~--------
D|---9--9--9--9--9--9--9--9--9--11-9--11-11----------9--11-----------------------
9----9--9--9--9--9--9--9--9--9--11-9--11-11---9--12------------------------------
E|---7--7--7--7--7--7--7--7--7--9--7--9--9---------------------------------------

Coro

         Lo malo...               ya esta hecho 
e|-----------------------------------------------------------
B|-----------------------------------------------------------
G|-----------------------------------------------------------
D|--7--7--7--7--7--7--7--7---11--11--11--11--11--11----------
9---7--7--7--7--7--7--7--7---11--11--11--11--11--11----------
E|--5--5--5--5--5--5--5--5---9---9---9---9---9---9-----------

          aunque por mi           sienta despresio
e|-----------------------------------------------------------
B|-----------------------------------------------------------
G|-----------------------------------------------------------
D|--7--7--7--7--7--7--7--7---11--11--11--11--11--11----------
9---7--7--7--7--7--7--7--7---11--11--11--11--11--11----------
E|--5--5--5--5--5--5--5--5---9---9---9---9---9---9-----------

         Lo malo...               ya esta hecho 
e|-----------------------------------------------------------
B|-----------------------------------------------------------
G|-----------------------------------------------------------
D|--7--7--7--7--7--7--7--7---11--11--11--11--11--11----------
9---7--7--7--7--7--7--7--7---11--11--11--11--11--11----------
E|--5--5--5--5--5--5--5--5---9---9---9---9---9---9-----------

          aunque por mi           sienta despresio
e|-----------------------------------------------------------
B|-----------------------------------------------------------
G|-----------------------------------------------------------
D|--7--7--7--7--7--7--7--7---11--11--11--11--11--11----------
9---7--7--7--7--7--7--7--7---11--11--11--11--11--11----------
E|--5--5--5--5--5--5--5--5---9---9---9---9---9---9-----------

                El mal,                  se encuentra anbriento
e|--------------------------------------------------------------------
B|--------------------------------------------------------------------
G|--------------------------------------------------------------------
D|---11--11--11--11--11--11--11--9---7--7--7--7--7--7--7--9--7--9--9--
A|---11--11--11--11--11--11--11--9---7--7--7--7--7--7--7--9--7--9--9--
E|---9---9---9---9---9---9---9---7---5--5--5--5--5--5--5--7--5--7--7--

         Y los coyotes auyan al viento   
e|---------------------------------------------------------------------
B|----------------------------------------------------------------------
G|----------------------------------------------------------------------
D|---9--9--9--9--9--9--9--9--9--11-9--11-11-11-11-11-11-11-11-9---
A|---9--9--9--9--9--9--9--9--9--11-9--11-11-11-11-11-11-11-11-9---
E|---7--7--7--7--7--7--7--7--7--9--7--9--9--9--9--9--9--9--9--7---

            el ave,                        vuela lento                              
e|--------------------------------------------------------------------
B|--------------------------------------------------------------------
G|--------------------------------------------------------------------
D|---11--11--11--11--11--11--11--9---7--7--7--7--7--7--7--9--7--9--9--
A|---11--11--11--11--11--11--11--9---7--7--7--7--7--7--7--9--7--9--9--
E|---9---9---9---9---9---9---9---7---5--5--5--5--5--5--5--7--5--7--7--

            La cadena flota en el viento      
e|---------------------------------------------------------------------
B|----------------------------------------------------------------------
G|----------------------------------------------------------------------
D|---9--9--9--9--9--9--9--9--9--11-9--11-11-11-11-11-11-11-11-9---
A|---9--9--9--9--9--9--9--9--9--11-9--11-11-11-11-11-11-11-11-9---
E|---7--7--7--7--7--7--7--7--7--9--7--9--9--9--9--9--9--9--9--7---

           que sin duda                 con el tiempo oxidaras        
e|--------------------------------------------------------------------
B|--------------------------------------------------------------------
G|--------------------------------------------------------------------
D|---11--11--11--11--11--11--11--9---7--7--7--7--7--7--7--9--7--9--9--
A|---11--11--11--11--11--11--11--9---7--7--7--7--7--7--7--9--7--9--9--
E|---9---9---9---9---9---9---9---7---5--5--5--5--5--5--5--7--5--7--7--

        mas el demente me venagara      
e|-------------------------------------------------------------------------------
B|-------------------------------------------------------------------------------
G|----------------------------------------------------------9--11--9--11~--------
D|---9--9--9--9--9--9--9--9--9--11-9--11-11----------9--11-----------------------
9----9--9--9--9--9--9--9--9--9--11-9--11-11---9--12------------------------------
E|---7--7--7--7--7--7--7--7--7--9--7--9--9---------------------------------------

Coro
  
         Lo malo...               ya esta hecho 
e|-----------------------------------------------------------
B|-----------------------------------------------------------
G|-----------------------------------------------------------
D|--7--7--7--7--7--7--7--7---11--11--11--11--11--11----------
9---7--7--7--7--7--7--7--7---11--11--11--11--11--11----------
E|--5--5--5--5--5--5--5--5---9---9---9---9---9---9-----------

          aunque por mi           sienta despresio
e|-----------------------------------------------------------
B|-----------------------------------------------------------
G|-----------------------------------------------------------
D|--7--7--7--7--7--7--7--7---11--11--11--11--11--11----------
9---7--7--7--7--7--7--7--7---11--11--11--11--11--11----------
E|--5--5--5--5--5--5--5--5---9---9---9---9---9---9-----------

         Lo malo...               ya esta hecho 
e|-----------------------------------------------------------
B|-----------------------------------------------------------
G|-----------------------------------------------------------
D|--7--7--7--7--7--7--7--7---11--11--11--11--11--11----------
9---7--7--7--7--7--7--7--7---11--11--11--11--11--11----------
E|--5--5--5--5--5--5--5--5---9---9---9---9---9---9-----------
         
      aunque por mi             sienta el despreio          
e|-----------------------------------------------------------
B|-----------------------------------------------------------
G|-----------------------------------------------------------
D|--7--7--7--7--7--7--7--7---11--11--11--11--11--11----------
9---7--7--7--7--7--7--7--7---11--11--11--11--11--11----------
E|--5--5--5--5--5--5--5--5---9---9---9---9---9---9-----------

          siento el mal,                   dentro de mi 
e|--------------------------------------------------------------------
B|--------------------------------------------------------------------
G|--------------------------------------------------------------------
D|---11--11--11--11--11--11--11--9---7--7--7--7--7--7--7--9--7--9--9--
A|---11--11--11--11--11--11--11--9---7--7--7--7--7--7--7--9--7--9--9--
E|---9---9---9---9---9---9---9---7---5--5--5--5--5--5--5--7--5--7--7--

              y no quiero que salga de ahi            
e|---------------------------------------------------------------------
B|----------------------------------------------------------------------
G|----------------------------------------------------------------------
D|---9--9--9--9--9--9--9--9--9--11-9--11-11-11-11-11-11-11-11-9---
A|---9--9--9--9--9--9--9--9--9--11-9--11-11-11-11-11-11-11-11-9---
E|---7--7--7--7--7--7--7--7--7--9--7--9--9--9--9--9--9--9--9--7---

          pides mas                sientate ahi                           
e|--------------------------------------------------------------------
B|--------------------------------------------------------------------
G|--------------------------------------------------------------------
D|---11--11--11--11--11--11--11--9---7--7--7--7--7--7--7--9--7--9--9--
A|---11--11--11--11--11--11--11--9---7--7--7--7--7--7--7--9--7--9--9--
E|---9---9---9---9---9---9---9---7---5--5--5--5--5--5--5--7--5--7--7--

          no tienes que mostrar.....     Respero hacia mi                 
e|----------------------------------------------------------------------
B|----------------------------------------------------------------------
G|----------------------------------------------------------------------
D|---9--9--9--9--9--9--9--9--9--11-9--11--------------------------------
A|---9--9--9--9--9--9--9--9--9--11-9--11--------------------------------
E|---7--7--7--7--7--7--7--7--7--9--7--9---------------------------------

Solo...1
                                            

e|--------------------------------------------------------------------
B|--------------------------------------------------------------------
G|--------------------------------------------------------------------
D|---11--11--11--11--11--11--11--9---7--7--7--7--7--7--7--9--7--9--9--
A|---11--11--11--11--11--11--11--9---7--7--7--7--7--7--7--9--7--9--9--
E|---9---9---9---9---9---9---9---7---5--5--5--5--5--5--5--7--5--7--7--

                         
e|---------------------------------------------------------------------
B|----------------------------------------------------------------------
G|----------------------------------------------------------------------
D|---9--9--9--9--9--9--9--9--9--11-9--11-11-11-11-11-11-11-11-9---
A|---9--9--9--9--9--9--9--9--9--11-9--11-11-11-11-11-11-11-11-9---
E|---7--7--7--7--7--7--7--7--7--9--7--9--9--9--9--9--9--9--9--7---

                                     
e|--------------------------------------------------------------------
B|--------------------------------------------------------------------
G|--------------------------------------------------------------------
D|---11--11--11--11--11--11--11--9---7--7--7--7--7--7--7--9--7--9--9--
A|---11--11--11--11--11--11--11--9---7--7--7--7--7--7--7--9--7--9--9--
E|---9---9---9---9---9---9---9---7---5--5--5--5--5--5--5--7--5--7--7--

                           
e|----------------------------------------------------------------------
B|----------------------------------------------------------------------
G|----------------------------------------------------------------------
D|---9--9--9--9--9--9--9--9--9--11-9--11--------------------------------
A|---9--9--9--9--9--9--9--9--9--11-9--11--------------------------------
E|---7--7--7--7--7--7--7--7--7--9--7--9---------------------------------

                                            
e|--------------------------------------------------------------------
B|--------------------------------------------------------------------
G|--------------------------------------------------------------------
D|---11--11--11--11--11--11--11--9---7--7--7--7--7--7--7--9--7--9--9--
A|---11--11--11--11--11--11--11--9---7--7--7--7--7--7--7--9--7--9--9--
E|---9---9---9---9---9---9---9---7---5--5--5--5--5--5--5--7--5--7--7--

              
e|-------------------------------------------------------------------------------
B|-------------------------------------------------------------------------------
G|-------------------------------------------------------------------------------
D|---9--9--9--9--9--9--9--9--9--11-9--11-11--------------------------------------
9----9--9--9--9--9--9--9--9--9--11-9--11-11--------------------------------------
E|---7--7--7--7--7--7--7--7--7--9--7--9--9---------------------------------------

Solo...2
                                            

e|--------------------------------------------------------------------
B|--------------------------------------------------------------------
G|--------------------------------------------------------------------
D|---11--11--11--11--11--11--11--9---7--7--7--7--7--7--7--9--7--9--9--
A|---11--11--11--11--11--11--11--9---7--7--7--7--7--7--7--9--7--9--9--
E|---9---9---9---9---9---9---9---7---5--5--5--5--5--5--5--7--5--7--7--

                         
e|---------------------------------------------------------------------
B|----------------------------------------------------------------------
G|----------------------------------------------------------------------
D|---9--9--9--9--9--9--9--9--9--11-9--11-11-11-11-11-11-11-11-9---
A|---9--9--9--9--9--9--9--9--9--11-9--11-11-11-11-11-11-11-11-9---
E|---7--7--7--7--7--7--7--7--7--9--7--9--9--9--9--9--9--9--9--7---

                                     
e|--------------------------------------------------------------------
B|--------------------------------------------------------------------
G|--------------------------------------------------------------------
D|---11--11--11--11--11--11--11--9---7--7--7--7--7--7--7--9--7--9--9--
A|---11--11--11--11--11--11--11--9---7--7--7--7--7--7--7--9--7--9--9--
E|---9---9---9---9---9---9---9---7---5--5--5--5--5--5--5--7--5--7--7--

                           
e|----------------------------------------------------------------------
B|----------------------------------------------------------------------
G|----------------------------------------------------------------------
D|---9--9--9--9--9--9--9--9--9--11-9--11--------------------------------
A|---9--9--9--9--9--9--9--9--9--11-9--11--------------------------------
E|---7--7--7--7--7--7--7--7--7--9--7--9---------------------------------

                                            
e|--------------------------------------------------------------------
B|--------------------------------------------------------------------
G|--------------------------------------------------------------------
D|---11--11--11--11--11--11--11--9---7--7--7--7--7--7--7--9--7--9--9--
A|---11--11--11--11--11--11--11--9---7--7--7--7--7--7--7--9--7--9--9--
E|---9---9---9---9---9---9---9---7---5--5--5--5--5--5--5--7--5--7--7--

              
e|-------------------------------------------------------------------------------
B|-------------------------------------------------------------------------------
G|-------------------------------------------------------------------------------
D|---9--9--9--9--9--9--9--9--9--11-9--11-11--------------------------------------
9----9--9--9--9--9--9--9--9--9--11-9--11-11--------------------------------------
E|---7--7--7--7--7--7--7--7--7--9--7--9--9---------------------------------------

Coro
  
         Lo malo...               ya esta hecho 
e|-----------------------------------------------------------
B|-----------------------------------------------------------
G|-----------------------------------------------------------
D|--7--7--7--7--7--7--7--7---11--11--11--11--11--11----------
9---7--7--7--7--7--7--7--7---11--11--11--11--11--11----------
E|--5--5--5--5--5--5--5--5---9---9---9---9---9---9-----------

          aunque por mi           sienta despresio
e|-----------------------------------------------------------
B|-----------------------------------------------------------
G|-----------------------------------------------------------
D|--7--7--7--7--7--7--7--7---11--11--11--11--11--11----------
9---7--7--7--7--7--7--7--7---11--11--11--11--11--11----------
E|--5--5--5--5--5--5--5--5---9---9---9---9---9---9-----------

         Lo malo...               ya esta hecho 
e|-----------------------------------------------------------
B|-----------------------------------------------------------
G|-----------------------------------------------------------
D|--7--7--7--7--7--7--7--7---11--11--11--11--11--11----------
9---7--7--7--7--7--7--7--7---11--11--11--11--11--11----------
E|--5--5--5--5--5--5--5--5---9---9---9---9---9---9-----------
         
      aunque por mi             sienta el despreio          
e|-----------------------------------------------------------
B|-----------------------------------------------------------
G|-----------------------------------------------------------
D|--7--7--7--7--7--7--7--7---11--11--11--11--11--11----------
9---7--7--7--7--7--7--7--7---11--11--11--11--11--11----------
E|--5--5--5--5--5--5--5--5---9---9---9---9---9---9-----------


                                El grito del coyote
     
El frio, atrae al miedo

El sabio te da un consejo

Que infieno, se vive aqui adentro

no temas al rugor de la llama

La caldera se encuentra hirviendo

La cuerda ya esta puesta.....


coro

Lo malo ya esta hecho 

aunque por mi sienta despresio

Lo malo ya esta hecho 

aunque por mi sienta despresio


El mal, se encuentra anbriento

Y los coyotes auyan al viento

el ave, vuela lento

La cadena flota en el viento

que sin duda con el tiempo oxidaras

mas el demente me venagara


coro

Lo malo ya esta hecho 

aunque por mi sienta despresio

Lo malo ya esta hecho 

aunque por mi sienta despresio


Siento el mal, 

dentro de mi y no quiero que salga de ahi

pides mas, 

sientate ahi no tienes que mostrar.....Respero hacia mi


.....Solo......


coro

Lo malo ya esta hecho 

aunque por mi sienta despresio

Lo malo ya esta hecho 

aunque por mi sienta despresio


Esta es una de las mejores rolas de sumeria...espero que no te ahiga costado, las
de bajo, y los solitos pronto las tendras, comentarios dudas o sugerencias 
lo puedes hacer a Suemeria51@
Suggest correction
Give kudos to tab author, rate the tab!
1 2 3 4 5
comments
print report bad tab
guest
You may want to rate the tab now too:
select rating
Wanna post a correction for this tab? Suggest correction