Oops, an error
Loading. Please wait.

The Seventh Seal tab

307 views 3 this week
no commentswrite comment
1 2 3 4 5
3 more votes to show rating
add to favorites
×
Save as Personal and add changes to this tab that will be seen only by you. Learn more ›
×
You can save this tab as Personal to edit and correct it or add notes. All changes will be seen only by you. Learn more »
launch autoscroll
font size
0
reset
how to read this tab
guitar tuner
edit
Autoscroll
slow
fast
+/-
esc
set tempo
stop
SUMERLANDS
"The Seventh Seal"
From the album "Sumerlands" (2016)

Tuning = Whole Step Down from Standard (D G C F A D)
Tempo = 140 bpm


[0:00 - Intro]

    Gtr I
D||---------------------|----------------|-----------------------|-------------------||
A||-------------------9-|------11\-------|-----------------------|-----6-------4-----||
F||----------8----------|-8-----8\-------|-----------8--/10\\8-7-|-(7)---7-----5-----||
C||----10----------10---|---10-----------|-----10-------/12\10-8-|-(8)-----8-6-------|| x3
G||-------10----10------|----------------|--------10-------------|-------------------||
D||--8------------------|--------------8-|-(8)-------------------|----------------8--||

                                                                                    3/8
D|--------------------|----------------|-----------------------|-------------------|----------|
A|------------------9-|------11\-------|-----------------------|-----6-----4-----3-|----------|
F|---------8----------|-8-----8\-------|-----------8--/10\\8-7-|-(7)---7-----5-----|-3--------|
C|---10----------10---|---10-----------|-----10-------/12\10-8-|-(8)-----8-----6---|---5------|
G|------10----10------|----------------|--------10-------------|-------------------|-----10---|
D|-8------------------|--------------8-|-(8)-------------------|-------------------|------8---|


[0:29 - Main Riff and Lead]

   4/4
   Gtr II
D|--15~~~~~---------------------|-(15)~~~~~~~-----------------|
A|------------------------------|-----------------------------|
F|------------------------------|--------------------------15-|
C|------------------------------|-----------------------------|
G|------------------------------|-----------------------------|
D|------------------------------|-----------------------------|
 |
 | Gtr I
D|------------------------------|-----------------------------|
A|------------------------------|-----------------------------|
F|------------------------------|-----------------------10----|
C|----------13-----12--8-----10-|-(10)-----13-----12-13----10-|
G|-(10)-----10-----10-10-----10-|-(10)-----10--------------10-|
D|--(8)-8-8--8-8-8--8--8-8-8--8-|--(8)-8-8--8-8-8-----------8-|


D|------------------------------------|--------------------|
A|-------------13------11h13p11-9---8-|--9--8----8-/8---13-|
F|-(15)\\\----------------------------|-------10-----------|
C|------------------------------------|--------------------|
G|------------------------------------|--------------------|
D|------------------------------------|--------------------|
 |
D|------------------------------------|--------------------|
A|------------------------------------|--------------------|
F|----------------------------------7-|-(7)-8--5-----------|
C|-(10)-----13------12--8-----------8-|-(8)-8--6--------10-|
G|-(10)-----10------10-10-------------|-----------------10-|
D|--(8)-8-8--8--8-8--8--8-------8-8-6-|-(6)-6--4---------8-|


D|-------------------------------------|----------------------------15h16h18-15h16h18-/20-|
A|-(13)-11h13p11--9---8----9--8-----16-|-(16)-13---15-16---15h16h18-----------------------|
F|-------------------------------------|--------------------------------------------------|
C|-------------------------------------|--------------------------------------------------|
G|-------------------------------------|--------------------------------------------------|
D|-------------------------------------|--------------------------------------------------|
 |
D|-------------------------------------|--------------------------------------------------|
A|-------------------------------------|--------------------------------------------------|
F|-------------------------------------|-------------------------------------10-----------|
C|-----------------13-----12--8-----10-|-(10)------13------12-------13-----------------10-|
G|--10-------------10-----10-10-----10-|-(10)------10----------------------------------10-|
D|---8---8----8-----8-8-8--8--8-8-8--8-|--(8)--8-8--8--8-8------------------------------8-|


D|-(20)-18---16-18-15-16----15----------------|------------------|----------------------|
A|-----------------------18----16-18-15-16-15-|-(15)-16----------|----------------------|
F|--------------------------------------------|---------17-----8-|-(8)-10-/10-----------|
C|--------------------------------------------|------------------|----------------10----|
G|--------------------------------------------|------------------|----------------10----|
D|--------------------------------------------|------------------|-----------------8----|
 |
D|--------------------------------------------|------------------|----------------------|
A|--------------------------------------------|------------------|----------------------|
F|------------------------------------------7-|--(7)--8--5-----5-|-(5)--7---4-----------|
C|--10-------13----------12-----8-----------8-|--(8)--8--6-----6-|-(6)--8---5-----10----|
G|--10-------10----------10----10-------------|------------------|----------------10----|
D|---8---8-8--8-----8--8--8-----8-----8--8--6-|--(6)--6--4-----4-|-(4)--6---3------8----|


[0:44 - Verse]

D||-----------------------------|----------------------------|
A||-----------------------------|----------------------------|
F||-----------------------------|----------------------------|
C||---------13-----12--8-----10-|-(10)-----13-------------10-|
G||--10-----10-----10-10-----10-|-(10)-----10-----------8-10-|
D||---8-8-8--8-8-8--8--8-8-8--8-|--(8)-8-8--8-8-8-10-11----8-|


D|-----------------------------|-----------------||
A|-----------------------------|-----------------||
F|---------------------------7-|-(7)-8-5---------||
C|-(10)-----13-----12--8-----8-|-(8)-8-6-----10--|| x2
G|-(10)-----10-----10-10-------|-------------10--||
D|--(8)-8-8--8-8-8--8--8-8-8-6-|-(6)-6-4------8--||


[0:58 - Verse Riff 2]

D||---------------------------------|------------------------------|
A||----8-------8------8-------------|------8------9-----11---------|
F||----8-------8------8-------------|------8------8------8---------|
C||--(10)-----10-----10-------------|-----10-----10-----10---------|
G||---------------------------------|------------------------------|
D||-------8-8----8-8----8-8-8-8-8-8-|-8-8----8-8----8-8----8-8-8-8-|


D|------------------------------|------------------------------||
A|--8------8------8-------------|---------------------------8--||
F|--8------8------8-------------|------8-----10------8------8--||
C|-10-----10-----10-------------|-----10-----10-----10-----10--|| x2
G|------------------------------|------------------------------||
D|----8-8----8-8----8-8-8-8-8-8-|-8-8----8-8----8-8----8-8-----||


[1:12 - Interlude]

D|---------------|---------------------------------|
A|---------------|-----------------4-3-------------|
F|---------------|-------------5-4-----5-4---------|
C|-5--5-------5--|-5-6-5-3-5-6-------------6-5-3-5-|
G|-5--5-------5--|---------------------------------|
D|-3--3---3-3-3--|---------------------------------|


D|---------------|-------------------------------|
A|---------------|-----------------4-3-----------|
F|---------------|-------------5-4-----5-4-------|
C|-5--5-------5--|-5-6-5-3-5-6-------------6-5---|
G|-5--5-------5--|-----------------------------3-|
D|-3--3---3-3-3--|-------------------------------|


[1:18 - Chorus]

D|-------------------|--------------|-----------------|-----3-3------------------|
A|-------------------|--------------|-----------------|---------4-4--------------|
F|---------8---------|--------------|-----8--7--------|--------------------------|
C|------10-----------|-----8--------|-----------8-----|--------------------------|
G|-(3)------------11-|--------------|-------------8---|-------------6------5-3---|
D|------------8-8----|-8-8-----8--6-|-(6)-----------4-|-(4)------------4-4-------|


D|-------------------|--------------|-----------------|-----3-3---------------|
A|-------------------|--------------|-----------------|---------4-4-----3---3-|
F|---------8---------|--------------|-----8--7--------|---------------5---5---|
C|------10-----------|-----8--------|-----------8-----|-------------6---------|
G|-(3)------------11-|--------------|-------------8---|-----------------------|
D|------------8-8----|-8-8-----8--6-|-(6)-----------4-|-(4)-------------------|


D|-3-----------3------|
A|-------3---3--------|
F|-----5---5----------|
C|---6-----------5----|
G|---------------3----|
D|--------------------|


[1:34 - Verse Riff B]

D||-------------------------------|------------------------------|
A||---8------8------8-------------|------8------9-----11---------|
F||---8------8------8-------------|------8------8------8---------|
C||--10-----10-----10-------------|-----10-----10-----10---------|
G||-------------------------------|------------------------------|
D||-----8-8----8-8----8-8-8-8-8-8-|-8-8----8-8----8-8----8-8-8-8-|


D|------------------------------|------------------------------||
A|--8------8------8-------------|---------------------------8--||
F|--8------8------8-------------|------8-----10------8------8--||
C|-10-----10-----10-------------|-----10-----10-----10-----10--|| x2
G|------------------------------|------------------------------||
D|----8-8----8-8----8-8-8-8-8-8-|-8-8----8-8----8-8----8-8-----||


[1:47 - Verse Riff A]

D|----------------------------|-----------------------------|
A|----------------------------|-----------------------------|
F|----------------------------|-----------------------------|
C|--------13-----12--8-----10-|-(10)-----13-------------10--|
G|-10-----10-----10-10-----10-|-(10)-----10-----------8-10--|
D|--8-8-8--8-8-8--8--8-8-8--8-|--(8)-8-8--8-8-8-10-11----8--|


D|---------------------------|----------------|
A|---------------------------|----------------|
F|-------------------------7-|-(7)-8-5--------|
C|-10-----13-----12--8-----8-|-(8)-8-6-----10-|
G|-10-----10-----10-10-------|-------------10-|
D|--8-8-8--8-8-8--8--8-8-8-6-|-(6)-6-4------8-|


D|----------------------------|-----------------------------|
A|----------------------------|-----------------------------|
F|----------------------------|-----------------------------|
C|--------13-----12--8-----10-|-(10)-----13-------------10--|
G|-10-----10-----10-10-----10-|-(10)-----10-----------8-10--|
D|--8-8-8--8-8-8--8--8-8-8--8-|--(8)-8-8--8-8-8-10-11----8--|


D|-----------------------------|---------------|-----------------|
A|-----------------------------|---------------|-----------------|
F|---------------------------7-|-(7)-8-5-----5-|-(5)--8-7--------|
C|-(10)-----13-----12--8-----8-|-(8)-8-6-----6-|-(6)-10-8--------|
G|-(10)-----10-----10-10-------|---------------|-----------------|
D|--(8)-8-8--8-8-8--8--8-8-8-6-|-(6)-6-4-----4-|-(4)--8-6-----3--|


[2:05 - Bridge]

D||-------------------|------------------|-------------------|---------------------||
A||-------------------|------------------|-------------------|---------------------||
F||-------------------|----------------7-|-(7)-7-7-7-7-7-7-5-|-(5)-5-5-5-5---------||
C||-------------------|----------------8-|-(8)-8-8-8-8-8-8-6-|-(6)-6-6-6-6---------|| x4
G||----------3-5-6----|---------3-5-6--8-|-(8)-8-8-8-8-8-8-6-|-(6)-6-6-6-6---------||
D||--(3)-3-3--------4-|-(4)-4-4--------6-|-(6)-6-6-6-6-6-6-4-|-(4)-4-4-4-4-6-4-3---||


[2:32 - Intro Riff]

D||---------------------|----------------|-----------------------|-------------------||
A||-------------------9-|------11\-------|-----------------------|-----6-------4-----||
F||----------8----------|-8-----8\-------|-----------8--/10\\8-7-|-(7)---7-----5-----||
C||----10----------10---|---10-----------|-----10-------/12\10-8-|-(8)-----8-6-------|| x2
G||-------10----10------|----------------|--------10-------------|-------------------||
D||--8------------------|--------------8-|-(8)-------------------|----------------8--||


[2:46 - Solo]

   Gtr II
D|---------------------------------------|---------------------------------------------|
A|---------------------------------------|-13b15r====13--------------------------------|
F|--------------------12-----------12-12-|------------------13---12-----------10tr12---|
C|-10-----------12-13--------------------|---------------------------------------------|
G|---------------------------------------|---------------------------------------------|
D|---------------------------------------|---------------------------------------------|
 |
 | Gtr I
D|---------------------------------------|---------------------------------------------|
A|---------------------------------------|---------------------------------------------|
F|---------------------------------------|---------------------------------------------|
C|----------------------------------5--5-|-------------------------------------5-----5-|
G|--3-3-3-3-3-3--3--3--5-5-6-6-3-3-------|--3----3-3--3-3-3--3-3--5-5-6-6-3-3----------|
D|---------------------------------------|---------------------------------------------|


D|---------------------------------------------------|----------------------------------------------------|
A|---------------------------------------------------|--------------------------------------------15------|
F|-(10tr12)-------9tr10-------10-----12///////15-----|-15h17p15----15h17p15----15----------15-------------|
C|---------------------------------------------------|----------17----------17------17--------------------|
G|---------------------------------------------------|----------------------------------------------------|
D|---------------------------------------------------|----------------------------------------------------|
 |
D|---------------------------------------------------|----------------------------------------------------|
A|---------------------------------------------------|----------------------------------------------------|
F|---------------------------------------------------|----------------------------------------------------|
C|---------------------------------------------------|----------------------------------------------------|
G|---3------3-3-3-3-----3-3-3--3-3-3----3-3-3----5-5-|--3-----3--6--6-----5--5---------------------3-3----|
D|---------------------------------------------------|--------------------------4-4--4-4-4--4-4-4---------|


D|--------------------------------------10---|-11-------11-------11----10-----------18b20---|
A|-13-------13-------13----12----------------|----13-------13-------------------------------|
F|----12-------12----------------------------|-------12-------12----12----------------------|
C|-------13-------13----13-------------------|----------------------------------------------|
G|-------------------------------------------|----------------------------------------------|
D|-------------------------------------------|----------------------------------------------|
 |
D|-------------------------------------------|----------------------------------------------|
A|-------------------------------------------|----------------------------------------------|
F|-------------------------------------------|----------------------------------------------|
C|---------------------------------------5-5-|---------------------------------------5----5-|
G|--3--3--3--3--3--3--3--3--5-5-6-6-3-3------|--3--3--3--3--3--3--3--3--5-5-6-6-3-3---------|
D|-------------------------------------------|----------------------------------------------|


D|-(18)---18---16---15---16p15-----------------|--------16-15-------------------------15-16-15-16-|-18----|
A|-----------------------------16--------------|--------------18-16-18-15----15-16-18-------------|-------|
F|--------------------------------------17-----|-(17)---------------------17----------------------|-------|
C|---------------------------------------------|--------------------------------------------------|-------|
G|---------------------------------------------|--------------------------------------------------|-------|
D|---------------------------------------------|--------------------------------------------------|-------|
 |
D|---------------------------------------------|--------------------------------------------------|
A|---------------------------------------------|--------------------------------------------------|
F|---------------------------------------------|--------------------------------------------------|
C|---------------------------------------------|--------------------------------------------------|
G|---3--3--3-3--3-3--3-3--3--3--3-3-3-3--5-5---|---3--3--6--6--5--5--------------------------3--3-|
D|---------------------------------------------|---------------------4--4--4--4--4--4--4--4-------|


[3:01 - Final Verse]

D||----------------------------------|----------------------------------|
A||----------------------------------|----------------------------------|
F||----------------------------------|----------------------------------|
C||------------------------------5-5-|-----------------------------5-5--|
G||--3-3-3-3-3-3-3-3-5-5-6-6-3-3-----|-3-3-3-3-3-3-3-3-5-5-6-6-3-3------|
D||----------------------------------|----------------------------------|


D|---------------------------------|----------------------------------||
A|---------------------------------|----------------------------------||
F|---------------------------------|----------------------------------||
C|---------------------------------|----------------------------------|| x3
G|-3-3-3-3-3-3-3-3-3-3-3-3-3-3-5-5-|-3-3-6-6-5-5-----------------3-3--||
D|---------------------------------|-------------4-4-4-4-4-4-4-4------||


D|---------------------------------|---------------------------------|
A|---------------------------------|---------------------------------|
F|---------------------------------|---------------------------------|
C|-----------------------------5-5-|-----------------------------5-5-|
G|-3-3-3-3-3-3-3-3-5-5-6-6-3-3-----|-3-3-3-3-3-3-3-3-5-5-6-6-3-3-----|
D|---------------------------------|---------------------------------|


D|---------------------------------|--------------------------------|
A|---------------------------------|--------------------------------|
F|---------------------------------|-----------------------------5--|
C|---------------------------------|-----------------------------5--|
G|-3-3-3-3-3-3-3-3-3-3-3-3-3-3-5-5-|-3-3-6-6-5-5-----------------3--|
D|---------------------------------|-------------4-4-4-4-4-4-4-4----|


D|----------------------------|---------------|
A|----------------------------|---------------|
F|-(5)----------------------7-|-(7)-8-5-------|
C|-(5)------------------------|---------------|
G|-(3)--3-3-3-3-3-3-3-3-3-3---|-------------3-|
D|----------------------------|---------------|


[3:30 - Outro]

D|-------------------|-------------------|--------------|-------------------|
A|-------------------|-------------------|--------------|-------------------|
F|-------------------|-------------------|--------------|-------------------|
C|-----------------5-|-(5)-------------5-|---3---3------|-------------------|
G|-(3)-3-3-3-5-6-3---|-----3-3-3-5-6-3---|-3---3------5-|-(5)-6-5---------3-|
D|-------------------|-------------------|--------------|---------4-4-4-4---|


D|-------------------|-------------------|--------------------*|
A|-------------------|-------------------|--------------------*|
F|-------------------|-------------------|--------------------*|
C|-----------------5-|-(5)-------------5-|---3---3------------*|
G|-(3)-3-3-3-5-6-3---|-----3-3-3-5-6-3---|-3---3-----6-5------*|
D|-------------------|-------------------|---------------4----*|



*********************************** 
|  /  Slide up 
|  \  Slide down 
|  h  Hummer-on 
|  p  Pull-off 
|  ~  Vibrato 
|  b  Bend 
|  =  Hold Bend
|  tr Trill
| (n) Ghost Note
***********************************

            
            
Suggest correction
Creating personal tab
Creating personal tab
You can edit any tab online and save it as your Personal.

You can edit, replace or remove any tab part or add personal notes – all changes will be seen only by you.

Personal tabs can be accessed anytime from any device, even offline.
Learn more »
Give kudos to tab author, rate the tab!
1 2 3 4 5
comments
print report bad tab
guest
You may want to rate the tab now too:
select rating
Wanna post a correction for this tab? Suggest correction