Oops, an error
Loading. Please wait.

Candy Wrappers tab

781 views 180 this week
no commentswrite comment
1 2 3 4 5
x 4
add to favorites
×
Save as Personal and add changes to this tab that will be seen only by you. Learn more ›
×
You can save this tab as Personal to edit and correct it or add notes. All changes will be seen only by you. Learn more »
launch autoscroll
font size
0
reset
how to read this tab
guitar tuner
edit
Autoscroll
slow
fast
+/-
esc
set tempo
stop
About this tab version
This tab covers the guitar parts of the song Candy Wrappers by Summer Salt. Was this info helpful? Yes No
Guitar tab for the song Candy Wrappers by Summer Salt.
Chords for Verse and Pre-Chorus: F and Gm.
Chords for Chorus: Bb Am Gm F Bb Am Gm Bb (End of song: F)

[Intro Guitar 1]                 
e|---------------|-5----5--------5-|-----5-----------|-8h10p8---8-------------------|
B|-6--6----------|--8p6--8p6--6--6-|--6h8-8p6-8/10-8-|-8-----10-8h10p8\6h8-8brp6--6-|
G|--5--5---5-----|-----------7---5-|-5---------------|---------------------------7--|
D|---7--7-8---8--|---------------7-|-----------------|------------------------------|
A|-----------8---|---------------8-|-----------------|------------------------------|
E|---------------|-----------------|-----------------|------------------------------|

[Intro Guitar 2]
e|-12-12-11\10-------|-------|-------------------------|-13h15p13--13-13----------------------------|
B|-13-13-12\11-12/13-|-------|-------------------------|-13-----15-15p13h15-13-13-15----------------|
G|-------------13/14-|-11/14-|-14h15/17\15p14h15/19\15-|--------------------14-14-14-12h14p12-11/14-|
D|-------------------|-12/15-|-15-15/17\15-15-15/19\15-|--------------------------------------12/15-|
A|-------------------|-------|-------------------------|--------------------------------------------|
E|-------------------|-------|-------------------------|--------------------------------------------|

[Verse]
F                                    Gm                         F
Well my love yea she vanished in the cold, August month way too soon
                                   Gm                           F
So I got out and put on my warmest coat took a stroll September cold
F                                   Gm                                F
Well I just can't sit around here waiting, waiting for her to get back home
F                                  Gm                                    F
So for now you will find me on the moon I've got no lemon drops no bubblegum

[Chorus]
Bb                                Am          Gm          F
Candy Candy Candy Candy Wrappers alone crowd the floor, dirty room
Bb                                Am    Gm                      Bb                 
Candy Candy Candy Candy Wrappers alone brushing my teeth I clean then and oh my sweet tooth gone

[Verse]
F                        Gm                              F
When the sun won't just shine on I'll be gone to yip and yeah
                                   Gm
If the stars come falling from the night
                          F
We can ride all night and cruise
F                                 Gm                                   F
Well I just can't sit around here waiting, baking my smokes around the storm
                                  Gm   
Well I just can't sit around and aching anymore
                                   F
No girl you past out down on the pillow woah

[Chorus]
Bb                                Am    Gm               F
Candy Candy Candy Candy Wrappers alone crowd the floor, dirty room
Bb                                Am    Gm                        Bb                 
Candy Candy Candy Candy Wrappers alone brushing my teeth I clean then and oh my sweet tooth gone

[Solo 2:24]
e|------------------|--------------------------8-------------|
B|----6----6--------|---------6-6-6-6--6h8p6-8br-p6-6-6h8/10-|
G|-5h7--5h7--5-5-7--|----5-5h7-----7--7----------------------|
D|----------------5-|-5h7------------------------------------|
A|------------------|----------------------------------------|
E|------------------|----------------------------------------|

e|-----8h10-10p8------------------|--------8-10/13-10h13/15-15brp13---13---------------|
B|-8h10---------10-6h8-8-8-8----6-|-6h8/10--------------------------15--15-13h15-------|
G|---------------------------5/7--|----------------------------------------------12-14-|
D|--------------------------------|----------------------------------------------------|
A|--------------------------------|----------------------------------------------------|
E|--------------------------------|----------------------------------------------------|

[Chorus]
Bb                                Am    Gm               F
Candy Candy Candy Candy Wrappers alone crowd the floor, dirty room
Bb                                Am    Gm                        Bb                             F
Candy Candy Candy Candy Wrappers alone brushing my teeth I clean then and oh my sweet tooth gone


***********************************

| /   Slide up
| \   Slide down
| h   Hammer-on
| p   Pull-off
| br  Bend and release

***********************************

            
            
Suggest correction
Creating personal tab
Creating personal tab
You can edit any tab online and save it as your Personal.

You can edit, replace or remove any tab part or add personal notes – all changes will be seen only by you.

Personal tabs can be accessed anytime from any device, even offline.
Learn more »
comments
print report bad tab
guest
You may want to rate the tab now too:
select rating
Wanna post a correction for this tab? Suggest correction