Oops, an error
Loading. Please wait.

Haunting Hallowed Graves tab

version 2
version 2

Whole song

Interactive

772 views 1 this week
3 commentsread comments
1 2 3 4 5
1 last vote to show rating
add to favorites
×
Save as Personal and add changes to this tab that will be seen only by you. Learn more ›
×
You can save this tab as Personal to edit and correct it or add notes. All changes will be seen only by you. Learn more »
launch autoscroll
font size
0
reset
how to read this tab
guitar tuner
edit
Autoscroll
slow
fast
+/-
esc
set tempo
stop
----------------------------------------------------------------------------
               HAUNTING HALLOWED GRAVES - Summers End
----------------------------------------------------------------------------
Tabbed By: Mike Connolly
E-Mail: xmikeconnollyx@aol.com

Tuning: Dropped D

Intro- 3x
-----------------------------------|-----------------------------------|
-----------------------------------|-----------------------------------|
-----------------------------------|-----------------------------------|
-----------------------------------|-----------------------------------|
------5---7---8---10---8---7---8-8-|------7---8---10---8---7---8---7-7-|
--0-0---0---0---0----0---0---0-----|--8-8---8---8----8---8---8---8-----|
   . .   .   .   .    .   .   .        . .   .   .    .   .   .   .
----------------------------------|----------------------------------|
----------------------------------|----------------------------------|
----------------------------------|----------------------------------|
--------------5-------------------|----------------------------------|
------7---8-------8---7---8---7-7-|------7---8---7-7-----7---8---7-7-|
--5-5---5---5---5---5---5---5-----|--7-7---7---7-----8-8---8---8-----|
  . .   .   .   .   .   .   .        . .   .   .     . .   .   .

Fill- 1x
----------------------------------------|
----------------------------------------|
----------------------------------------|
-----------------------7----------------|
--0-0-0--0-0-0--7h8h10---10p8p7h8p7-4*--|
--0-0-0--0-0-0--------------------------|
  . . .  . . .


Verse- 1x
------------------------------------|
------------------------------------|
------------------------------------|
------------------------------------|
------8---7-------------8---7---5---|
--0-0---0---0-0-0-0-0-0---0---0---0-|
  . .   .   . . . . . .   .   .   .
-------------------------------------------|
-------------------------------------------|
-------------------------------------------|
------------------------------7------------|
-----8---7-------------7h8h10---10p8p7h8p7-|
---0---0---0-0-0-0-0-0---------------------|
   .   .   . . . . . .
------------------------------------|------------------------------------|
------------------------------------|------------------------------------|
------------------------------------|------------------------------------|
------------------------------------|------------------------------------|
------8---7-------------8---7---5---|-----8---7-------------10---8---7---|
--0-0---0---0-0-0-0-0-0---0---0---0-|---0---0---0-0-0-0-0-0----0---0---0-|
  . .   .   . . . . . .   .   .   .     .   .   . . . . . .    .   .   .
------------------------------------|
------------------------------------|
------------------------------------|
------------------------------------|
------8---7-------------8---7---5---|
--0-0---0---0-0-0-0-0-0---0---0---0-|
  . .   .   . . . . . .   .   .   .
-------------------------------------------|
-------------------------------------------|
-------------------------------------------|
------------------------------7------------|
-----8---7-------------7h8h10---10p8p7h8p7-|
---0---0---0-0-0-0-0-0---------------------|
   .   .   . . . . . .
------------------------------------|------------------------------------|
------------------------------------|------------------------------------|
------------------------------------|------------------------------------|
------------------------------------|------------------------------------|
------8---7-------------8---7---5---|-----8---7-------------10---8---7---|
--0-0---0---0-0-0-0-0-0---0---0---0-|---0---0---0-0-0-0-0-0----0---0---0-|
  . .   .   . . . . . .   .   .   .     .   .   . . . . . .    .   .   .


Fill 2- 1x
------------------------------|
------------------------------|
------------------------------|
--10------10-10-12------12-12-|
--8-------8--8--10------10-10-|
--8-------8--8--10------10-10-|

Verse 2- 2x
-------------------------------------------|
-------------------------------------------|
-------------------------------------------|
-------------------5h7p5-3-5--3-2-3--2h3p0-|
--0----------------------------------------|
--0--0-0-0-0-0-0-0-------------------------|
     . . . . . . .
----------------------------------------------|
----------------------------------------------|
---------9-10-9-10-9----12--10-9-10-9-10-9----|
--12--12-------------12--------------------10-|
----------------------------------------------|
----------------------------------------------|

--------------------------------------------|
--------------------------------------------|
--------------------------------------------|
--------------------5h7p5-3-5--3-2-3--2h3p0-|
--0-----------------------------------------|
--0---0-0-0-0-0-0-0-------------------------|
      . . . . . . .
-----------------------------------|
-----------------------------------|
--12--10-9-10----10--9----9--------|
-----------------------12----12-10-|
-----------------------------------|
-----------------------------------|

Breakdown 1 part 1- 3x
-----------------------------------|--------------------------------------|
-----------------------------------|--------------------------------------|
-----------------------------------|--------------------------------------|
-----------------------------------|--------------------------------------|
--0--------------------------------|--0-----------------------------------|
--0---0-0-0-0-0---0-0-0-0-0-0-0-0--|--0--0-0-0-0-0-0-0---0-0-0-0-0-0-0-0--|
      . . . . .   . . . . . . . .        . . . . . . .   . . . . . . . .
Breakdown 1 part 2- 1x
--------------------------------------|--------------------------------|
--------------------------------------|--------------------------------|
--------------------------------------|--------------------------------|
--------------------------------------|--------------------------------|
--0-----------------------------------|--0------------------0------0---|
--0--0-0-0-0-0-0-0---0-0-0-0-0-0-0-0--|--0--0-0-0-0-0-0-0---0------0---|
     . . . . . . .   . . . . . . . .        . . . . . . .

Chorus- 4x
-------------------------------------|
-------------------------------------|
-------------------------------------|
-----------------------3--2---2--0---|
--0--------------------5--3---3--0---|
--0--0-0-0-0-0-0-0-0-0------0------0-|
     . . . . . . . . .      .      .
-------------------------------------------------------------|
-------------------------------------------------------------|
-------------------------------------------------------------|
-------------------------------------------------------------|
--8--8-8-12-12-8-8-10-10-8-8---------10-10-7-7-8-8-7-7-7-8-7-|
--8--------------------------7-7-7-7-------------------------|

Fill before verse 3- 1x
--------------------|--------------------------------|
--------------------|--------------------------------|
--------------------|--------------------------------|
--0--------8--------|--10----------------------------|
--0--------8--------|--10----------8h10p8-7-8-10-8-7-|
--0--------8--------|--10----------------------------|


Verse 3- 4x
--------------------------------------|------------------------------------|
--------------------------------------|------------------------------------|
--------------------------------------|------------------------------------|
--8-----------------------------------|--7---------------------------------|
--8----8---10-------8h10p8-7-8-10-8-7-|--7----7---8-------8h10p8-7-8-10-8-7|
--8--8---8----8-8-8-------------------|--7--7---7---7-7-7------------------|
     .   .    . . .                         .   .   . . .
-------------------------------------|
-------------------------------------|
-------------------------------------|
--0----------------------------------|
--0----7---8-------8h10p8-7-8-10-8-7-|
--0--0---0---0-0-0-------------------|
     .   .   . . .


Rhythm under solo part 1- 4x
--------------------------------|---------------------------|
--------------------------------|---------------------------|
--7--------------7--------------|--------3--3---------------|
--7--------------7--------------|--------3--3--------5--4-0-|
--5--------------5--------------|--3--3--1--1--5--5--3--2-0-|
-----0-0-0-0-0-0----0-0-0-0-0-0-|--3--3--------5--5---------|
     . . . . . .    . . . . . .


Breakdown/Rhythm under solo part 2- 4x
-----------------------------------------|
-----------------------------------------|
-----------------------------------------|
-----------------------------------------|
--0-0-0-0-0----0-0-0-0-0----0-0-0-0-0----|
--0-0-0-0-0----0-0-0-0-0----0-0-0-0-0----|
  . . . . .    . . . . .    . . . . .
------------------------------------------------------------------------|
------------------------------------------------------------------------|
------------------------------------------------------------------------|
------------------------------------------------------------------------|
------0-0-0-----0-0-0-----0-0-0-------0-0-0-0-0----0-0-0-0-0------------|
------0-0-0-----0-0-0-----0-0-0-------0-0-0-0-0----0-0-0-0-0------------|
      . . .     . . .     . . .       . . . . .    . . . . .


Fill before chorus- 1x
---------------------------------|
---------------------------------|
---------------------------------|
---------------------------------|
------------------0-------0------|
--0-0-0-0-0-------0-------0------|
  . . . . .

Chorus- 4x
-------------------------------|
-------------------------------|
-------------------------------|
-----------------3--2---2--0---|
--0--------------5--3---3--0---|
--0--0-0-0-0-0-0------0------0-|
     . . . . . .      .      .
-------------------------------------------------------------|
-------------------------------------------------------------|
-------------------------------------------------------------|
-------------------------------------------------------------|
--8--8-8-12-12-8-8-10-10-8-8---------10-10-7-7-8-8-7-7-7-8-7-|
--8--------------------------7-7-7-7-------------------------|


This fill again... 1x
--------------------|--------------------------------|
--------------------|--------------------------------|
--------------------|--------------------------------|
--0--------8--------|--10----------------------------|
--0--------8--------|--10----------8h10p8-7-8-10-8-7-|
--0--------8--------|--10----------------------------|


Back to this verse- 3x
--------------------------------------|------------------------------------|
--------------------------------------|------------------------------------|
--------------------------------------|------------------------------------|
--8-----------------------------------|--7---------------------------------|
--8----8---10-------8h10p8-7-8-10-8-7-|--7----7---8-------8h10p8-7-8-10-8-7|
--8--8---8----8-8-8-------------------|--7--7---7---7-7-7------------------|
     .   .    . . .                         .   .   . . .
-------------------------------------|
-------------------------------------|
-------------------------------------|
--0----------------------------------|
--0----7---8-------8h10p8-7-8-10-8-7-|
--0--0---0---0-0-0-------------------|
     .   .   . . .

| /  slide up
| \  slide down
| h  hammer-on
| p  pull-off
| ~  vibrato
| *  pinch harmonic
| x  mute note
| .  palm mute
============================================================================
That's it! Enjoy!!
Suggest correction
Creating personal tab
Creating personal tab
You can edit any tab online and save it as your Personal.

You can edit, replace or remove any tab part or add personal notes – all changes will be seen only by you.

Personal tabs can be accessed anytime from any device, even offline.
Learn more »
Give kudos to tab author, rate the tab!
1 2 3 4 5
comments
print report bad tab
3 comments total.
0 reply
Thefallofman 821 Nov 06, 2006 02:15 AM

The palm mutes in the first part somehow got aligned wrong, but if you didn't know, it's the low D string notes you palm mute.

0 reply
rain_in_blood27 10 Nov 11, 2008 02:52 PM

Dude very good job and it sounds so much better in drop D rather than c.

0 reply
rain_in_blood27 10 Nov 11, 2008 02:56 PM

oh and btw if at all possible i think you should tab out the solo :D+

guest
You may want to rate the tab now too:
select rating
Wanna post a correction for this tab? Suggest correction