Oops, an error
Loading. Please wait.

A Plan Behind Destruction Tab

45 views 1 this week
no commentswrite comment
1 2 3 4 5
please rate
add to favorites
launch autoscroll
font size
0
reset
how to read this tab
guitar tuner
Autoscroll
slow
fast
+/-
esc
set tempo
stop
Help us to improve Ultimate-Guitar.com Take our survey!
×
Author
-----------------------------------------------------------------------------
                             A Plan Behind Destruction - summerswasted
-----------------------------------------------------------------------------
Tabbed by: your moms house
visit summerswasted at www.summerswasted.tk

Tuning: standard yo.

intro(tabbed for guitar, actually played on bass)
e|-------------------------------------------------|
B|-------------------------------------------------|
G|-------------------------------------------------|
D|--7-----7-7--------------------------------------|
A|--5--55-----5-8-----8-8---10----1010--7----7-7---|
E|--------------6--66-----6-8--88-----8-5-55-----5-|

guitar intro riff - reverb effect optional
e|--------------------------|
B|--------------------------|
G|---0--0--0--0--0--0--0--0-|
D|--0--0--0--0--0--0--0--0--|
A|-5--5---------------------|
E|-------6--6--8--8--5--5---| played 2x

distortion intro riff - * mean palm muted
e|-----------------------------------------------------------|
B|-----------------------------------------------------------|
G|-7-7777-7-7-7----------------------------------------------|
D|-7-7777-7-7-7-8-8888-8-8-8-10-10101010-101010-7-7777-7-7-7-|
A|-5-5555-5-5-5-8-8888-8-8-8-10-10101010-101010-7-7777-7-7-7-|
E|--------------6-6666-6-6-6--8--8-8-8-8--8-8-8-5-5555-5-5-5-|played 2 x
     ****         ****           * * * *          ****

preverse(fast part)
e|-----------------------------------------------------|
B|-----------------------------------------------------|
G|-----------------------------------------------------|
D|-----------------------------------------------------|
A|-5-5-7-7-8-8-5-5-7-7-8-8-10-10-8-8-7-7-8-8-7-7-5-5---|
E|-----------------------------------------------------| played 4 x

verse(bass part again) "these teardrops fall..."
e|-------------------------------------------------|
B|-------------------------------------------------|
G|-------------------------------------------------|
D|--7-----7-7--------------------------------------|
A|--5--55-----5-8-----8-8---10----1010--7----7-7---|
E|--------------6--66-----6-8--88-----8-5-55-----5-| played 4 x

prechorus(fast again) "here i lay..." * are palm muted
e|----------------------------------------|
B|----------------------------------------|
G|----------------------------------------|
D|----------------------------------------|
A|-5578-5578--78--78--87--87--7-8-10-8-7--|
E|----------66--66--88--88--55------------| played 2 x
   **   **  **  **  **  **  **

chorus riff "turn around...." played 2x
e|---------------------------------------------------------------|
B|---------------------------------------------------------------|
G|-777777777777--------------------------------------------------|
D|-777777777777888888888888101010101010101010101010777777777777--|
A|-555555555555888888888888101010101010101010101010777777777777--|
E|-------------666666666666-8-8-8-8-8-8-8-8-8-8-8-8555555555555--|
   turn........see.........through...............existence

back to preverse(fast part)
back to verse part
prechorus again
chorus again

bridge - reverb effect optional
e|---------------------------------------------------|
B|---------------------------------------------------|
G|---0--0--0--0--0--0--0--0--0--0--0--0--0--0--0--0--|
D|--0--0--0--0--0--0--0--0--0--0--0--0--0--0--0--0---|
A|-5--5--5--5----------------------------------------|
E|-------------6--6--6--6--8--8--8--8--5--5--5--5----| played 2x

end with chorus riff(play 2x) then fast part(2x)

verse 1:
these teardrops fall harder than the raindrops that bleed through my window is shattered 
the pain you've engraved into my heart.

prechorus:
here i lay on a puddle of blood from my own, from my own, neck.

chorus:
turn around and see the blade drive through my existence.

verse 2:
i walk these steps entering the room youll find me on the floor, ive erased myself from 
memory your heart still holds of me

ending:
its time for me to go, turn around to see the blade, turn.


| /  slide up
| \  slide down
| h  hammer-on
| p  pull-off
| ~  vibrato
| +  harmonic
| *  Mute note
=============================================================================
Suggest correction
What's this?
You can suggest a correction to this tab. Community and Mods will review your correction and vote to approve or reject it.
comments
We did not receive enough feedback on this tab! Please rate:
print report bad tab
1 2 3 4 5
guest
You may want to rate the tab now too:
select rating
Please do not post tabs as comments. Select "correction" instead!