Oops, an error
Loading. Please wait.

2008 Chords

202 views 1 this week
no commentswrite comment
1 2 3 4 5
please rate
add to favorites
launch autoscroll
font size
0
reset
transpose
0
reset
display chords
guitar tuner
Autoscroll
slow
fast
+/-
esc
set tempo
stop
Help us to improve Ultimate-Guitar.com Take our survey!
×
Author
Difficulty
novice
Intro: F Gm Bb Dm C Bb
(Notes for intro are G, F, C. Continue through song.)

F                          Gm
I found some perspective gathering dust
Bb
In the back of my drawer
Dm                       C                           Bb
I didn't know it was there but I'm glad 'cause I've never needed it more
F                    Gm 
And I found the letters that we used to write
Bb
Just a few years ago
Dm                           C                   Bb
I didn't know things had changed that much but I guess that now it shows
F
And it's what I make of this
C
That defines just who I am
Dm
And I know your mind won't change
Bb
'Cause you just don't understand
F
And I know the times were good
C
But that's what memories are for
Dm
I can live without you here 
Bb
I don't need you anymore
F                          Gm
Yeah, life was a canvas and we had a brush
Bb
And we'd paint our every day
Dm                          C                       Bb
But now you're gone and I'm left with a smear and a thousand shades of grey
F                                  Gm
So I'll pack my bags up 'cause I'm moving out
Bb
By tonight I'll be gone
Dm                          C
I'll leave this life and I'll say goodbye
Bb
'Cause I am moving on

Solo: F C Dm Bb (twice)


e|-----------------------------------------------------------------------------|
B|-----------------------------------------------------------------------------|
G|----------0-----------------------------------------------------------------0|
D|----0-2-3---3-2-0---0-2-----0---0-2-----0-0-------0--------------------0-2-3-|
A|--3---------------3-----3-3---3-----3-3-----3-1-0---3-1-0-1--0--0-1--3-------|
E|-1-1-1-1----------------------------------------------------1--3----1-1-1-1--|


e|------------------------0-1-----0-1-0-1--------------------------------------|
B|--------------------1-3-----1-3---------1-3-1--------------------------------|
G|--0-0-2-0-3-2-0-2-3---------------------------3-2-0--------------------------|
D|-3-3-----3-----3------------------------------------0-2-3-2-0----------------|
A|---------------------------------------------------------------3-1-0---------|
E|---------------------------------------------------------------------3-1-----|
Repeat chorus

Final chorus lyrics:
This is how I leave you behind
And this is how I wipe you from my mind

Suggest correction
Give kudos to tab author, rate the tab!
1 2 3 4 5
comments
print report bad tab
guest
You may want to rate the tab now too:
select rating
Please do not post tabs as comments. Select "correction" instead!