Oops, an error
Loading. Please wait.

Beyond Bloodred Horizons tab

version 1
version 1

Whole song

Interactive

16 views 1 this week
no commentswrite comment
1 2 3 4 5
1 last vote to show rating
add to favorites
×
Save as Personal and add changes to this tab that will be seen only by you. Learn more ›
×
You can save this tab as Personal to edit and correct it or add notes. All changes will be seen only by you. Learn more »
launch autoscroll
font size
0
reset
how to read this tab
guitar tuner
edit
Autoscroll
slow
fast
+/-
esc
set tempo
stop
Summoning - Beyond bloodred horizons


[Intro]
e|---------------------------------|-----------------------------------|
B|---------------------------------|-----------------------------------|
G|---------------------------------|-----------------------------------|
D|-8-8-8-8-6-6-6-6-8-8-8-8-6-6-8-8-|-9-9-9-9-7-7-7-7-9-9-9-9-10-10-9-9-|
A|-6-6-6-6-6-6-6-6-6-6-6-6-6-6-6-6-|-7-7-7-7-7-7-7-7-7-7-7-7-7--7--7-7-|
E|---------------------------------|-----------------------------------|

[Part 1] x2
[guitar 1]
e|---------------------------------|---------------------------------|
B|---------------------------------|---------------------------------|
G|-8-8-8-8-------8---------4-4---4-|-8-8-8-8-9-9-9-8---------4-4---4-|
D|---------8-8-8---6-6-6-6-----6---|-----------------6-6-6-6-----6---|
A|---------------------------------|---------------------------------|
E|---------------------------------|---------------------------------|
[guitar 2]
e|---------------------------------|---------------------------------|
B|---------------------------------|---------------------------------|
G|---------------------------------|---------------------------------|
D|-8-8-8-8-6-6-6-6-----------------|-8-8-8-8-6-6-6-6-----------------|
A|-6-6-6-6-4-4-4-4-8-8-8-8-8-8-8-8-|-6-6-6-6-4-4-4-4-8-8-8-8-8-8-8-8-|
E|-----------------6-6-6-6-6-6-6-6-|-----------------6-6-6-6-6-6-6-6-|

[Part 2] x4
[guitar 1]
e|---------------------------------------------|-----------------------------------|
B|-----10-10-11-11-10-10-----10-10-11-11-10-10-|-----------------------------------|
G|-7-7-------------------7-7-------------------|-7-7-9-9-10-10-9-9-6-6-6-6-7-7-9-9-|
D|---------------------------------------------|-----------------------------------|
A|---------------------------------------------|-----------------------------------|
E|---------------------------------------------|-----------------------------------|
[guitar 2]
e|---------------------------------------------|-----------------------------------|
B|---------------------------------------------|-----------------------------------|
G|---------------------------------------------|-----------------------------------|
D|-7-7-7-7-7-7-7-7-7-7-7-7-7-7-7-7-7-7-7-7-7-7-|-----------------------------------|
A|-5-5-5-5-5-5-5-5-5-5-5-5-5-5-5-5-5-5-5-5-5-5-|-8-8-8-8-8-8-8-8-8-7-7-7-7-7-7-7-7-|
E|---------------------------------------------|-6-6-6-6-6-6-6-6-6-5-5-5-5-5-5-5-5-|

[Part 3] x4
[guitar 1]
e|----------------------------------|
B|----------------------------------|
G|-7-7-----7-7---7--5-5-----8-8---8-|
D|-----7-7-----7--------5-5-----8---|
A|----------------------------------|
E|----------------------------------|
[guitar 2]
e|----------------------------------|
B|----------------------------------|
G|----------------------------------|
D|-7-7-7-7-7-7-7-7--5-5-5-5-8-8-8-8-|
A|-5-5-5-5-5-5-5-5--3-3-3-3-6-6-6-6-|
E|----------------------------------|

[Part 4] x4
e|-----------------------------------------------------------------|
B|-----------------------------------------------------------------|
G|-----------------------------------------------------------------|
D|-7-7-7-7-7-7-7-7-7-7-7-7-5-5-3-3-2-2-2-2-2-2-2-2-3-3-3-3-5-5-5-5-|
A|-5-5-5-5-5-5-5-5-5-5-5-5-3-3-1-1-0-0-0-0-0-0-0-0-1-1-1-1-3-3-3-3-|
E|-----------------------------------------------------------------|

[Part 1] x2
[guitar 1]
e|---------------------------------|---------------------------------|
B|---------------------------------|---------------------------------|
G|-8-8-8-8-------8---------4-4---4-|-8-8-8-8-9-9-9-8---------4-4---4-|
D|---------8-8-8---6-6-6-6-----6---|-----------------6-6-6-6-----6---|
A|---------------------------------|---------------------------------|
E|---------------------------------|---------------------------------|
[guitar 2]
e|---------------------------------|---------------------------------|
B|---------------------------------|---------------------------------|
G|---------------------------------|---------------------------------|
D|-8-8-8-8-6-6-6-6-----------------|-8-8-8-8-6-6-6-6-----------------|
A|-6-6-6-6-4-4-4-4-8-8-8-8-8-8-8-8-|-6-6-6-6-4-4-4-4-8-8-8-8-8-8-8-8-|
E|-----------------6-6-6-6-6-6-6-6-|-----------------6-6-6-6-6-6-6-6-|

[Part 2] x4
[guitar 1]
e|---------------------------------------------|-----------------------------------|
B|-----10-10-11-11-10-10-----10-10-11-11-10-10-|-----------------------------------|
G|-7-7-------------------7-7-------------------|-7-7-9-9-10-10-9-9-6-6-6-6-7-7-9-9-|
D|---------------------------------------------|-----------------------------------|
A|---------------------------------------------|-----------------------------------|
E|---------------------------------------------|-----------------------------------|
[guitar 2]
e|---------------------------------------------|-----------------------------------|
B|---------------------------------------------|-----------------------------------|
G|---------------------------------------------|-----------------------------------|
D|-7-7-7-7-7-7-7-7-7-7-7-7-7-7-7-7-7-7-7-7-7-7-|-----------------------------------|
A|-5-5-5-5-5-5-5-5-5-5-5-5-5-5-5-5-5-5-5-5-5-5-|-8-8-8-8-8-8-8-8-8-7-7-7-7-7-7-7-7-|
E|---------------------------------------------|-6-6-6-6-6-6-6-6-6-5-5-5-5-5-5-5-5-|

[Part 3] x4
[guitar 1]
e|----------------------------------|
B|----------------------------------|
G|-7-7-----7-7---7--5-5-----8-8---8-|
D|-----7-7-----7--------5-5-----8---|
A|----------------------------------|
E|----------------------------------|
[guitar 2]
e|----------------------------------|
B|----------------------------------|
G|----------------------------------|
D|-7-7-7-7-7-7-7-7--5-5-5-5-8-8-8-8-|
A|-5-5-5-5-5-5-5-5--3-3-3-3-6-6-6-6-|
E|----------------------------------|

[Part 4] x4
e|-----------------------------------------------------------------|
B|-----------------------------------------------------------------|
G|-----------------------------------------------------------------|
D|-7-7-7-7-7-7-7-7-7-7-7-7-5-5-3-3-2-2-2-2-2-2-2-2-3-3-3-3-5-5-5-5-|
A|-5-5-5-5-5-5-5-5-5-5-5-5-3-3-1-1-0-0-0-0-0-0-0-0-1-1-1-1-3-3-3-3-|
E|-----------------------------------------------------------------|


[Part 1] x2
[guitar 1]
e|---------------------------------|---------------------------------|
B|---------------------------------|---------------------------------|
G|-8-8-8-8-------8---------4-4---4-|-8-8-8-8-9-9-9-8---------4-4---4-|
D|---------8-8-8---6-6-6-6-----6---|-----------------6-6-6-6-----6---|
A|---------------------------------|---------------------------------|
E|---------------------------------|---------------------------------|
[guitar 2]
e|---------------------------------|---------------------------------|
B|---------------------------------|---------------------------------|
G|---------------------------------|---------------------------------|
D|-8-8-8-8-6-6-6-6-----------------|-8-8-8-8-6-6-6-6-----------------|
A|-6-6-6-6-4-4-4-4-8-8-8-8-8-8-8-8-|-6-6-6-6-4-4-4-4-8-8-8-8-8-8-8-8-|
E|-----------------6-6-6-6-6-6-6-6-|-----------------6-6-6-6-6-6-6-6-|

[Part 2] x4
[guitar 1]
e|---------------------------------------------|-----------------------------------|
B|-----10-10-11-11-10-10-----10-10-11-11-10-10-|-----------------------------------|
G|-7-7-------------------7-7-------------------|-7-7-9-9-10-10-9-9-6-6-6-6-7-7-9-9-|
D|---------------------------------------------|-----------------------------------|
A|---------------------------------------------|-----------------------------------|
E|---------------------------------------------|-----------------------------------|
[guitar 2]
e|---------------------------------------------|-----------------------------------|
B|---------------------------------------------|-----------------------------------|
G|---------------------------------------------|-----------------------------------|
D|-7-7-7-7-7-7-7-7-7-7-7-7-7-7-7-7-7-7-7-7-7-7-|-----------------------------------|
A|-5-5-5-5-5-5-5-5-5-5-5-5-5-5-5-5-5-5-5-5-5-5-|-8-8-8-8-8-8-8-8-8-7-7-7-7-7-7-7-7-|
E|---------------------------------------------|-6-6-6-6-6-6-6-6-6-5-5-5-5-5-5-5-5-|

[Part 3] x4
[guitar 1]
e|----------------------------------|
B|----------------------------------|
G|-7-7-----7-7---7--5-5-----8-8---8-|
D|-----7-7-----7--------5-5-----8---|
A|----------------------------------|
E|----------------------------------|
[guitar 2]
e|----------------------------------|
B|----------------------------------|
G|----------------------------------|
D|-7-7-7-7-7-7-7-7--5-5-5-5-8-8-8-8-|
A|-5-5-5-5-5-5-5-5--3-3-3-3-6-6-6-6-|
E|----------------------------------|

[Part 4] x4
e|-----------------------------------------------------------------|
B|-----------------------------------------------------------------|
G|-----------------------------------------------------------------|
D|-7-7-7-7-7-7-7-7-7-7-7-7-5-5-3-3-2-2-2-2-2-2-2-2-3-3-3-3-5-5-5-5-|
A|-5-5-5-5-5-5-5-5-5-5-5-5-3-3-1-1-0-0-0-0-0-0-0-0-1-1-1-1-3-3-3-3-|
E|-----------------------------------------------------------------|

[Coda]
e|---|
B|---|
G|-7-|
D|-7-|
A|-5-|
E|---|
Suggest correction
Creating personal tab
Creating personal tab
You can edit any tab online and save it as your Personal.

You can edit, replace or remove any tab part or add personal notes – all changes will be seen only by you.

Personal tabs can be accessed anytime from any device, even offline.
Learn more »
Give kudos to tab author, rate the tab!
1 2 3 4 5
comments
print report bad tab
guest
You may want to rate the tab now too:
select rating
Wanna post a correction for this tab? Suggest correction