Oops, an error
Loading. Please wait.

Banderitas Y Globos Bass

version 1
version 1

Whole song

by Sumo
221 views 1 this week
no commentswrite comment
1 2 3 4 5
3 more votes to show rating
add to favorites
launch autoscroll
font size
0
reset
guitar tuner
×
Best way to learn
"Banderitas Y Globos"
Autoscroll
slow
fast
+/-
esc
set tempo
stop
G--7-------------------
D------7-----7-7-9-7-4-
A----5---5-------------
E----------------------

BAJADA:
G-----------------------------------------------------------------
D-7-7-7-7-6-6-6-6-5-5-5-5-4-4-4-4-3-3-3-3-2-2-2-2-1-1-1-1-0-0-0-0-
A-----------------------------------------------------------------
E-----------------------------------------------------------------

G-------------------------------------------------------
D-------------------------------------------------------
A-4-4-4-4-3-3-3-3-2-2-2-2-1-1-1-1-0-0-0-0-0-0-0-0-0-0-0-
E-------------------------------------------------------

CAMBIO AL FINAL:
G---------5-5-------------------------------5-5----------------------
D-----4-4-----4-4-----------------------4-4-----4-4------------------
A-5-5-------------5-----------------5-5-------------5----------------
E--------------------7-7-7-8-8-9-9---------------------7-7-7-8-8-9-9-

G---------5-5-------------5-5-------------5-5-----5-5-----5-5-----
D-----4-4-----4-4-----4-4-----4-4-----4-4-----4-4-----4-4-----4-4-
A-5-5-------------5-5-------------5-5-----------------------------
E-----------------------------------------------------------------
Suggest correction
Give kudos to tab author, rate the tab!
1 2 3 4 5
comments
print report bad tab
guest
You may want to rate the tab now too:
select rating
Wanna post a correction for this tab? Suggest correction