Oops, an error
Loading. Please wait.

Banderitas Y Globos Bass

version 2
version 2

Whole song

by Sumo
142 views 1 this week
no commentswrite comment
1 2 3 4 5
3 more votes to show rating
add to favorites
×
Save as Personal and add changes to this tab that will be seen only by you. Learn more ›
×
You can save this tab as Personal to edit and correct it or add notes. All changes will be seen only by you. Learn more »
save as personal
new!
launch autoscroll
font size
0
reset
guitar tuner
Autoscroll
slow
fast
+/-
esc
set tempo
stop
Bueno, mi primer tab subido liedis and jentelman


La canción esta ABSOLUTAMENTE TODO en Re Mayor (D),
tiene un riff de base que
son 2 variaciones y uno final, aparte de la bajada.


Arranca el 8va de Re, haciendo corcheas...


Entra:

Base
G|--7------------------------7---------------------|
D|---7-9--9-7-9-7-------------7-9--9-7-9-11--------|
A|----------------9-9-9--------------------9-9-9---|
E|-------------------------------------------------|

O sino, también se puede hacer así
(no hay que mover las mano de posición):

G|--7-4--4-4------------7-4--4-4-6---------------|
D|---7----7-7-4-4-4------7----7---4-4-4----------|
A|-----------------------------------------------|
E|-----------------------------------------------|


La bajada es desde la 8va a Tónica de La... o sea:

A|-12-11-10-9-8-7-6-5-4-3-2-1-0---|


La parte del solo de saxo está toda en Re también...
y se puede jugar con las 5ta

A|-5-5--|
E|--5-5--|


El Final es mas difícil, tira una escala medio rockabilly y 8vas
(ovbio que está en Re)

G|--------5-5-4----7-4-5-6--------5-5-4----7-4-5-6-->
D|-----4-7-----7---------------4-7-----7------------>
A|--5-5-----------5-2-3-4---5-5-----------5-2-3-4--->
E|-------------------------------------------------->

G|-------5-5-4---------5-5-4---------5-5-4---5-5-4--5-5-4---|
D|----4-7-----7-----4-7-----7-----4-7-----7-------7------7--|
A|-5-5-----------5-5-----------5-5--------------------------|
E|----------------------------------------------------------|


Una bajadita mas y c'est fini... Temazo, muy groso Arnedo

Saludos.. gracias
Suggest correction
Give kudos to tab author, rate the tab!
1 2 3 4 5
comments
print report bad tab
guest
Wanna post a correction for this tab? Suggest correction