Oops, an error
Loading. Please wait.

Breacking Away Tab

by Sumo
107 views 3 this week
no commentswrite comment
1 2 3 4 5
3 more votes to show rating
add to favorites
launch autoscroll
font size
0
reset
how to read this tab
guitar tuner
Autoscroll
slow
fast
+/-
esc
set tempo
stop
Help us to improve Ultimate-Guitar.com Take our survey!
×
        sumo-Breacking Away

  MIm         LA     DO     SOL

|--7-----------5------3-----3----------------|
|--8-----------5------5-----3----------------|
|--9-----------6------5-----4----------------|
|--9-----------7------5-----5----------------|
|--7-----------7------3-----5----------------|
|--------------5------X-----3----------------|


 Solo 1:[las notas que tienen () no se le da con la pua,
         se hacen arrastrando o golpeando con el dedo]

|----------------------------------------------------|
|--10/(12)12~~~-10-12~~----/12--12121212-(10)(8)-----|
|-------------------------------------------------9--|
|----------------------------------------------------|
|----------------------------------------------------|
|----------------------------------------------------|


-----------------------------------------|
-----------------------8-------------8---|
------7/(9)----7/(9)--9-9----7/(9)--9-9--|
-----------------------------------------|
-----------------------------------------|
-----------------------------------------|


|-------------------------------|
|---8h(10)10~---10-12--12/(15)--|
|-------------------------------|
|-------------------------------|
|-------------------------------|
|-------------------------------|


--------------------------------------------------------------------|
--10/(12)10-12------------8-----8--10brp(8)----10--8------8-10-8----|
--------------9~~------7-9-9-7-9--------------9--97-9----9------9~~-|
--------------------------------------------------------------------|
--------------------------------------------------------------------|
--------------------------------------------------------------------|


|-----------------------------
|----------10------8-10-12----
|--7/(9)-97--9------------12--
|-----------------------------
|-----------------------------
|-----------------------------


------12-15---------------------------------------------------|
----15-----15brp(12)---1512----15/(12)-12/(10)-10/(8)---------|
-x12---------------------------------------------------9~-7~--|
--------------------------------------------------------------|
--------------------------------------------------------------|
--------------------------------------------------------------|


Solo 2:

|----------------------------------------12-15-17br--15--17b---------|
|--12/(14)-12-10-------8--10br-81012/(15)------------15-------12-15b-|
|---------------9----79----------------------------------------------|
|--------------------------------------------------------------------|
|--------------------------------------------------------------------|
|--------------------------------------------------------------------|


                        4:12
|----------------------------------------------------12--12-15br-|
|-/(12)~-10-8----8----------8108--12---1512---151215---15--------|
|-------------979-9~---7/(9)--------12---------------------------|
|----------------------------------------------------------------|
|----------------------------------------------------------------|
|----------------------------------------------------------------|


|--------12---------------------------------------------
|-12/(15)--151210~----8108-8-----------8b---------------
|-------------------------9------7/(9)9----79--99--99---
|-------------------------------------------------------
|-------------------------------------------------------
|-------------------------------------------------------


---------------------1215-|
--10/(12)12-1012/(15)-----|
--------------------------|
--------------------------|
--------------------------|
--------------------------|


 4:28
--121512-15/17----1217--------------------------|
----------------------15-1212-15---10/(12)108---|
---------------------------------------------9~-|
------------------------------------------------|
------------------------------------------------|
------------------------------------------------|

final:
|--7-----------5------3-----3----------------|
|--8-----------5------5-----3----------------|
|--9-----------6------5-----4----------------|
|--9-----------7------5-----5----------------|
|--7-----------7------3-----5----------------|
|--------------5------X-----3----------------|

                     yeah
|--7~~~~--------------7~~~--------------------|
|--8~~~~--------------8~~~--------------------|
|--9~~~~--------------9~~~--------------------|
|--9~~~~--------------9~~~--------------------|
|--7~~~~--------------7~~~--------------------|
|---------------------0~~~--------------------|


elpupi666@
.Pupi-godoy,sta fe
Suggest correction
Give kudos to tab author, rate the tab!
1 2 3 4 5
comments
print report bad tab
guest
You may want to rate the tab now too:
select rating
Wanna post a correction for this tab? Suggest correction