Oops, an error
Loading. Please wait.

Breaking Away Bass Tab

333 views 9 this week
no commentswrite comment
1 2 3 4 5
3 more votes to show rating
add to favorites
launch autoscroll
font size
0
reset
guitar tuner
×
Best way to learn
"Breaking Away"
Autoscroll
slow
fast
+/-
esc
set tempo
stop
epite esta base toda la cancion


     Em                    LAm
G|-------------------|--------------------|
D|-------------------|--------------------|
A|-------------------|-------------------2|
E|--0-0-0-3-0-0-0-3-7|-5-3-3-5-3-5-5-5-5--|


       DO                 Sol
G|-------------------|--------------------|
D|-------------------|--------------------|
A|--3-0-0-3-0-3---3-5|--------------------|
E|--------------5----|--3-3-3-5-3-3-3-5-3-|


     Em                    LAm
G|-------------------|--------------------|
D|-------------------|--------------------|
A|-------------------|-------------------2|
E|--0-0-0-3-0-0-0-3-7|-5-3-3-5-3-5-5-5-5--|


       DO                 Sol
G|-------------------|--------------------|
D|-------------------|--------------------|
A|--3-0-0-3-0-3---3-5|--------------------|
E|--------------5----|--3-3-3-5-3-3-3-5-3-|

     Em                    LAm
G|-------------------|--------------------|
D|-------------------|--------------------|
A|-------------------|-------------------2|
E|--0-0-0-3-0-0-0-3-7|-5-3-3-5-3-5-5-5-5--|


       DO                 Sol
G|-------------------|--------------------|
D|-------------------|--------------------|
A|--3-0-0-3-0-3---3-5|--------------------|
E|--------------5----|--3-3-3-5-3-3-3-5-3-|

     Em                    LAm
G|-------------------|--------------------|
D|-------------------|--------------------|
A|-------------------|-------------------2|
E|--0-0-0-3-0-0-0-3-7|-5-3-3-5-3-5-5-5-5--|


       DO                 Sol
G|-------------------|--------------------|
D|-------------------|--------------------|
A|--3-0-0-3-0-3---3-5|--------------------|
E|--------------5----|--3-3-3-5-3-3-3-5-3-|
Suggest correction
Give kudos to tab author, rate the tab!
1 2 3 4 5
comments
print report bad tab
guest
You may want to rate the tab now too:
select rating
Wanna post a correction for this tab? Suggest correction