Oops, an error
Loading. Please wait.

Crua Chan Bass Tab

197 views 1 this week
no commentswrite comment
1 2 3 4 5
3 more votes to show rating
add to favorites
launch autoscroll
font size
0
reset
guitar tuner
×
Best way to learn
"Crua Chan"
Autoscroll
slow
fast
+/-
esc
set tempo
stop
INTRO 1
|-------------------|------------------|-------------------|------------------|
|-------------------|------------------|-------------------|------------------|
|-------------------|------------------|-------------------|-----------7-/-12-|
|-------------------|------------------|-------------------|------------------|

|-------------------|------------------|-------------------|------------------|
|-------------------|---11--11--11--11-|-------------------|---14--14--14--14-|
|-0-0-12---0-0-12---|-0---0---0---0----|-0-0-12---0-0-12---|-0---0---0---0----|
|-------------------|------------------|-------------------|------------------|


ESTROFA 1
|-------------------|------------------|-------------------|------------------|
|-------------------|---11--11--11--11-|-------------------|---14--14--14--14-|
|-0-0-12---0-0-12---|-0---0---0---0----|-0-0-12---0-0-12---|-0---0---0---0----|
|-------------------|------------------|-------------------|------------------|

                                                           |-----------9-/-14-|
                                                           |---14--14---------|
                                                           |-0---0---0--------|
                                                           |------------------|


ESTRIBILLO 1  (x2)
|-----------------|-------------------|-------------------|------------9-/-14-|
|-11--------------|-------------------|-------------------|-------------------|
|-----14--12--14--|-0-0-12---0-0-12---|-0-0-12---0-0-12---|-0-0-12---0--------|
|-----------------|-------------------|-------------------|-------------------|


ESTROFA 2
|-------------------|------------------|-------------------|------------------|
|-------------------|---11--11--11--11-|-------------------|---14--14--14--14-|
|-0-0-12---0-0-12---|-0---0---0---0----|-0-0-12---0-0-12---|-0---0---0---0----|
|-------------------|------------------|-------------------|------------------|

                                                           |-----------9-/-14-|
                                                           |---14--14---------|
                                                           |-0---0---0--------|
                                                           |------------------|


ESTRIBILLO 2
|-----------------|-------------------|-------------------|------------9-/-14-|
|-11--------------|-------------------|-------------------|-------------------|
|-----14--12--14--|-0-0-12---0-0-12---|-0-0-12---0-0-12---|-0-0-12---0--------|
|-----------------|-------------------|-------------------|-------------------|

                                                          |-------------------|
                                                          |-------------------|
                                                          |-0-0-12---0-7-/-12-|
                                                          |-------------------|


INTRO 2
|-------------------|------------------|-------------------|------------------|
|-------------------|------------------|-------------------|------------------|
|-0-------~---------|------------------|-------------------|------------------|
|-------------------|------------------|-------------------|------------------|

|-------------------|------------------|-------------------|------------------|
|-------------------|------------------|-------------------|------------------|
|-------------------|------------------|-------------------|-----------7-/-12-|
|-------------------|------------------|-------------------|------------------|


ESTROFA 3
|-------------------|------------------|-------------------|------------------|
|-------------------|---11--11--11--11-|-------------------|---14--14--14--14-|
|-0-0-12---0-0-12---|-0---0---0---0----|-0-0-12---0-0-12---|-0---0---0---0----|
|-------------------|------------------|-------------------|------------------|

                                                           |-----------9-/-14-|
                                                           |---14--14---------|
                                                           |-0---0---0--------|
                                                           |------------------|


ESTRIBILLO 3
|-----------------|-------------------|-------------------|------------9-/-14-|
|-11--------------|-------------------|-------------------|-------------------|
|-----14--12--14--|-0-0-12---0-0-12---|-0-0-12---0-0-12---|-0-0-12---0--------|
|-----------------|-------------------|-------------------|-------------------|

                                                          |-------------------|
                                                          |-------------------|
                                                          |-0-0-12---0-7-/-12-|
                                                          |-------------------|


INTRO 3
|-------------------|------------------|-------------------|------------------|
|-------------------|------------------|-------------------|------------------|
|-0-------~---------|------------------|-------------------|------------------|
|-------------------|------------------|-------------------|------------------|

|-------------------|------------------|-------------------|------------------|
|-------------------|------------------|-------------------|------------------|
|-------------------|------------------|-------------------|---------7--/--12-|
|-------------------|------------------|-------------------|------------------|


ESTROFA 4
|-----------------|-------------------|-------------------|------------9-/-14-|
|-11--------------|-------------------|-------------------|-------------------|
|-----14--12--14--|-0-0-12---0-0-12---|-0-0-12---0-0-12---|-0-0-12---0--------|
|-----------------|-------------------|-------------------|-------------------|

                                                          |-------------------|
                                                          |-------------------|
                                                          |-0-0-12---0-7-/-12-|
                                                          |-------------------|


FINAL
|-------------------|------------------|-------------------|------------------|
|-------------------|------------------|-------------------|------------------|
|-0-------~---------|------------------|-------------------|------------------|
|-------------------|------------------|-------------------|------------------|

|-------------------|------------------|-------------------|------------------|
|-------------------|------------------|-------------------|------------------|
|-------------------|------------------|-------------------|------------------|
|-------------------|------------------|-------------------|------------------|
Suggest correction
Give kudos to tab author, rate the tab!
1 2 3 4 5
comments
print report bad tab
guest
You may want to rate the tab now too:
select rating
Wanna post a correction for this tab? Suggest correction