Oops, an error
Loading. Please wait.

Crua Chan Tab

132 views 1 this week
no commentswrite comment
1 2 3 4 5
3 more votes to show rating
add to favorites
launch autoscroll
font size
0
reset
how to read this tab
guitar tuner
Autoscroll
slow
fast
+/-
esc
set tempo
stop
Help us to improve Ultimate-Guitar.com Take our survey!
×
- La canción está en A mayor (A B C# D E F# G#).


- Guitarra 1 (gaita), repite toda la canción.
   *              *             *              *
e|----------------------------|-12-------------------------|
B|-12h14p12-------12----------|----14p12-------12----------|
G|----------14----------14----|----------14----------14----|
D|----------------------------|----------------------------|
A|----------------------------|----------------------------|
E|----------------------------|----------------------------|


- Guitarra 2, intro y estrofas
   *       *       *       *         *       *       *       *
e|---------------------------------|---------------------------------|
B|---------------------------------|---------------------------------|
G|---------------------------------|---------------------------------|
D|---------7-----------------------|-4-------------------------------|
A|---------------5-5-h-7---7-------|---------7-------4-/-5-------7---|
E|-5-------------------------------|--------------(5)----------------|


- Guitarra 2, estribillos (x2)
   *   *   *   *     *   *   *   *     *   *   *   *     *   *   *   *
e|-----------------|-----------------|-----------------|-----------------|
B|-----------------|-----------------|-----------------|-----------------|
G|-----------------|-----------------|-----------------|-----------------|
D|---------4-------|-------------4---|-----------------|---------7-7-~---|
A|-4---7-------7---|-4---~---7-7---7-|-----4-------4---|-4---~-----------|
E|-----------------|-----------------|-5-------7-------|-----------------|


Estrofa 1:
It was seven hundred and forty-five,
the highland spirit had revived,
Mac Dougall and Mac Donald there,
the clans had come from everywhere, singing:

Estribillo:
Fee fi fo fum, I smell the blood of a Englishman,
fee fi fo fum, come on London, here we come.

Estrofa 2:
We went all the way down south,
we were frothening at the mouth,
coming down to Derby town,
we'd beaten everyone around, singing:

Estribillo:
Fee fi fo fum, I smell the blood of a Englishman,
fee fi fo fum, come on England, here we come.

Estrofa 3:
We ended at Culloden moor,
feeling bad and feeling poor,
the redcoats had chased us there,
there we died and there we stayed, singing:

Estribillo:
Fee fi fo fum, I smell the blood of a Scotsman,
fee fi fo fum, United Kingdom here we come.

Estrofa 4:
We the bonnie prince has gone back home,
he's never gonna come back.
We'll do to you at Wembley,
we'll do it to you in pubs,
with the Scottish louts larking about.
Here come your rats, cruachan lad.
Suggest correction
Give kudos to tab author, rate the tab!
1 2 3 4 5
comments
print report bad tab
guest
You may want to rate the tab now too:
select rating
Wanna post a correction for this tab? Suggest correction