Oops, an error
Loading. Please wait.

Cuerdas, Gargantas Y Cables Bass Tab

by Sumo
55 views 3 this week
no commentswrite comment
1 2 3 4 5
3 more votes to show rating
add to favorites
launch autoscroll
font size
0
reset
guitar tuner
Autoscroll
slow
fast
+/-
esc
set tempo
stop
Help us to improve Ultimate-Guitar.com Take our survey!
×
Bueno gente seguidora e Sumo
aqui les dejo otra tablatura de bajo q suena bastnate bien a mi gusto
cualkier cosa q deseen decirme mi mail es
andressalamandra11@

Empecemos

Para guiarse yo les recomiendo q se orienten cn el riff de la guitarra,
ya q son bastante parecidos en ritmo y en sonido.
Haganlo bien rapido

Verso
                    Dm
G|---------7-5-------------7*-(5)*--------| *Lo q se puede aser es:
D|---7-5-7-----7-5---7-5-7------(7)*-(5)*-| tocar las tres ultimas notas
A|-5---------------5----------------------| o dejar sonar el ultimo RE
E|----------------------------------------|
                    C
G|---------5-3-------------7*-(5)*--------|
D|---5-3-5-----5-3---5-3-5------(7)*-(5)*-|
A|-3---------------3----------------------|
E|----------------------------------------|

Puente

G|---------------------------------------------------|
D|---------------------------------------------------|
A|-55555555555-222222222222s101010101010101010101010-|
E|---------------------------------------------------|

G|-----------------------------------------------------------------|
D|-----------------------------------------------------------------|
A|-55555555555-222222222222s101010101010101010101010s17171717171717|
E|-----------------------------------------------------------------|

Bueno, espero q les haya gustado
Para mi suena bastante bien
Si alguien hace correccinoes,mandelas
Y cre q por ahi le pifie en la parte del puente pero
lodemas creo q esta bien
y otra cosita mas
respecto al PUENTE: la "s" significa q se tiene q deslizar
hacia el otro
traste sin sacar el dedo de la cuerday puse los numeros
muchas veces para indicar q son muchas
las veces q se tocan o sea, q la cantidad no se si es
exacta pero calculen q son 10 veces por nota

muchas gracias y aguante sumo arnedo divididods y las pelotas
manden mas tabs para bajo!!!!
Suggest correction
Give kudos to tab author, rate the tab!
1 2 3 4 5
comments
print report bad tab
guest
You may want to rate the tab now too:
select rating
Wanna post a correction for this tab? Suggest correction