Oops, an error
Loading. Please wait.

Divididos Por La Felicidad Bass Tab

version 1
version 1

Whole song

by Sumo
124 views 1 this week
no commentswrite comment
1 2 3 4 5
3 more votes to show rating
add to favorites
launch autoscroll
font size
0
reset
guitar tuner
Autoscroll
slow
fast
+/-
esc
set tempo
stop
Help us to improve Ultimate-Guitar.com Take our survey!
×
intro.. desp de la bata / verso ..      varia con esto ...
G|-----------------|x4-|-------------|-|-------------------|
D|-----------------|---|-------------|-|-------------------|
A|-----------------|---|-7-7-7-9-9-9-|-|-7-7-7-9-9-9/10-11-|
E|-2-2-2-4-4-4-6H5-|---|-------------|-|-------------------|

  good time ...        agosto... agosto...
G|-------------------|------|
D|-12-12-12-14-14-14-|--14--| repite varias vese ...
A|-------------------|------|
E|-------------------|------|

 hace esto x3        ..a la cuarta va esto ...
G|-------------|---|-----------------|
D|-------------|---|-----------------|
A|-------------|---|-------------4-6-|
E|-2-2-2-4-4-4-|---|-2-2-2-4-4-4-----|

  y engancha con esto...                     / hace = q arriba
G|-------------|X4-------|-------------------|------|
D|-------------|---------|-12-12-12-14-14-14-|--14--| agosto..
A|-7-7-7-9-9-9-|---------|-------------------|------|
E|-------------|---------|-------------------|------|

  pre solo de saxo..x3 / a la cuarta hace esto ...
G|-----------------|---|----------------|
D|-----------------|---|----------------|
A|-----------------|---|------------4-6-|
E|-2-2-2-4-4-4-6H5-|---|-2-2-2-4-4-4----|

 solo de saxo ... / a la cuarta va esto ...
G|-------------|x3-|----------------|
D|-------------|---|-----------9/12-|
A|-7-7-7-9-9-9-|---|-7-7-7-9-9------|
E|-------------|---|----------------|

 y engancha...
G|-------------------|x4-|-------|hace lo mismo q arriba..
D|-12-12-12-14-14-14-|---|---14--|
A|-------------------|---|-------|
E|-------------------|---|-------|

 final del solo de saxo.../ verso ...     varia con esto ...
G|-------------|x3-|------|-------------|-------------------|
D|-------------|---|------|-------------|-------------------|
A|-------------|---|------|-7-7-7-9-9-9-|-7-7-7-9-9-9/10-11-|
E|-2-2-2-4-4-4-|---|------|-------------|-------------------|

 good time..           = q arriba..      final.
G|-------------------|------|          |-----------|
D|-12-12-12-14-14-14-|--14--|agosto .. |-----------|
A|-------------------|------|          |-----------|
E|-------------------|------|          |-2-2-2-3-4-|

escuchen el tema para sacarlo ... q no es muy dificil ...
aguante sumo loco!
Suggest correction
Give kudos to tab author, rate the tab!
1 2 3 4 5
comments
print report bad tab
guest
You may want to rate the tab now too:
select rating
Wanna post a correction for this tab? Suggest correction