Oops, an error
Loading. Please wait.

Heroina Bass

by Sumo
277 views 1 this week
no commentswrite comment
1 2 3 4 5
2 more votes to show rating
add to favorites
launch autoscroll
font size
0
reset
guitar tuner
×
Best way to learn
"Heroina"
Autoscroll
slow
fast
+/-
esc
set tempo
stop
/-------------/-------------/-------------/-------------/
/-------------/---11---11---/-------------/---11---11---/
/-------------/---0----0----/-------------/---0----0----/
/---12---12---/-------------/---12---12---/-------------/ repite 8

/-------------/-------------/-------------/-------------/
/-------------/---11---11---/-------------/---------11--/
/-------------/---0----0----/-------------/---------0---/
/---12---12---/-------------/---12---12---/-------------/

/-------------/--4--5--6-----/--------------/
/---6---------/-----------7--/--------6-----/
/--------7----/--------------/--4--5--------/
/-------------/--------------/-----------0--/

/--4--5--6-----/--------------/
/-----------7--/--------6-----/
/--------------/--4--5--------/
/--------------/-----------0--/ repite 6

/--4--5--6-----/--------------/-------------/-------------/
/-----------7--/--------------/-------------/---11---11---/
/--------------/--4--5--------/-------------/---0----0----/
/--------------/--------------/---12---12---/-------------/
Suggest correction
Give kudos to tab author, rate the tab!
1 2 3 4 5
comments
print report bad tab
guest
You may want to rate the tab now too:
select rating
Wanna post a correction for this tab? Suggest correction